» » »

Racoon, Never Alone Tabs (ver.1)

Artists:  A B C D E F G H I J K L M N O P Q R S T U V W X Y Z # 

Never Alone Tabs (ver.1)

Racoon Tabs
 Rating:
4/5 (4 votes)
Never Alone lessons Tabs too difficult? Try these video lessons and learn fast
1
                ---------------------------------------------------------------------------------
---------------------------------------------------------------------------------

A nice song from their newest album "Before You Leave" If you have 
comments, suggestions and/or improvements, feel free to use this tab as a
template for a more accurate version, but I think it's pretty accurate already.

Have Fun!


Tuning: half-step down
        Eb-Ab-Db-Gb-Bb-eb

eb|-2-----2--------2-----0---------0---0---2-2---2----------2--0----|
Bb|-3-----2--------2-----0---------0---0---2-2---3--3--2h3----------|
Gb|-----------------------------------------------------------------|
Db|-----------------------------------------------------------------|
Ab|-2-----1--------0-----------------------0-0---2------------------|
Eb|--------------0-------4-------0-3---3----------------------------|

eb|-2-----2--------2-----0---------0---0---2-2---2------0---2-------|
Bb|-3-----2--------2-----0---------0---0---2-2---3--3----------3----|
Gb|-----------------------------------------------------------------|
Db|-----------------------------------------------------------------|
Ab|-2-----1--------0-----------------------0-0---2------------------|
Eb|--------------0-------4---------3---3----------------------------|

eb|-2-----2--------2-----0--------0-----2-------2-----2---0---------|
Bb|-3-----2--------2-----0--------0-----2-------3-----3-------------|
Gb|-----------------------------------------------------------------| 3x
Db|-----------------------------------------------------------------|
Ab|-2-----1--------0--------------------0-------2-----2-------------|
Eb|----------------------4--------3---------------------------------|

eb|-2-----2--------2-----0---------0---0---2-2---2----------2--0----|
Bb|-3-----2--------2-----0---------0---0---2-2---3--3--2h3----------|
Gb|-----------------------------------------------------------------|
Db|-----------------------------------------------------------------|
Ab|-2-----1--------0-----------------------0-0---2------------------|
Eb|--------------0-------4-------0-3---3----------------------------|

eb|---7-----7-----7-----7-----2-----2-----2-----2-------------------|
Bb|------8-----8-----8-----8-----3-----3-----2------2---------------|
Gb|-----------------------------------------------------------------|
Db|-----------------------------------------------------------------|
Ab|-7------------7-----------2-----------0--------------------------|
Eb|-----------------------------------------------------------------|

eb|---7-----7-----7-----7-----2-----2-----2-----0h2-----------------|
Bb|------8-----8-----8-----8-----3-----3-----2------2---------------|
Gb|-----------------------------------------------------------------|
Db|-----------------------------------------------------------------|
Ab|-7------------7-----------2-----------1--------------------------|
Eb|-----------------------------------------------------------------|

eb|---7-----7-----7-----7-----2-----2-----2-----2-------------------|
Bb|------8-----8-----8-----8-----3-----3-----2------2---------------|
Gb|-----------------------------------------------------------------|
Db|-----------------------------------------------------------------|
Ab|-7------------7-----------2-----------0--------------------------|
Eb|-----------------------------------------------------------------|

eb|---7-----7-----7-----7-----2-----2-----2-----0h2-----------------|
Bb|------8-----8-----8-----8-----3-----3-----2------2---------------|
Gb|-----------------------------------------------------------------|
Db|-----------------------------------------------------------------|
Ab|-7------------7-----------2-----------1--------------------------|
Eb|-----------------------------------------------------------------|

eb|--------------------------------2-----0--------2-----2-----------|
Bb|-2-----2---------3-----3--------3--------------2-----2-----------|
Gb|-2-----2---------4-----4-----------------------------------------|
Db|-----------------------------------------------------------------|
Ab|--------------------------------2-----2--------0-----0-----------|
Eb|-2-----2---------3-----3-----------------------------------------|

eb|-2-----2---------3-----3--------2-----2--------0-----0-----------|
Bb|-2-----2---------3-----3--------3-----3---3----2-----2-----------|
Gb|-2-----2---------4-----4-----------------------2-----2-----------|
Db|-----------------------------------------------------------------|
Ab|--------------------------------2-----2--------0-----0-----------|
Eb|-2-----2---------3-----3-----------------------------------------|

eb|-2-----2--------2-----0---------0---0---2-2---2------0---2-------|
Bb|-3-----2--------2-----0---------0---0---2-2---3--3----------3----|
Gb|-----------------------------------------------------------------|
Db|-----------------------------------------------------------------|
Ab|-2-----1--------0-----------------------0-0---2------------------|
Eb|--------------0-------4---------3---3----------------------------|

eb|-2-----2--------2-----0--------0-----2-------2-----2---0---------|
Bb|-3-----2--------2-----0--------0-----2-------3-----3-------------|
Gb|-----------------------------------------------------------------| 3x
Db|-----------------------------------------------------------------|
Ab|-2-----1--------0--------------------0-------2-----2-------------|
Eb|----------------------4--------3---------------------------------|

eb|-2-----2--------2-----0---------0---0---2-2---2----------2--0----|
Bb|-3-----2--------2-----0---------0---0---2-2---3--3--2h3----------|
Gb|-----------------------------------------------------------------|
Db|-----------------------------------------------------------------|
Ab|-2-----1--------0-----------------------0-0---2------------------|
Eb|--------------0-------4-------0-3---3----------------------------|

eb|---7-----7-----7-----7-----2-----2-----2-----2-------------------|
Bb|------8-----8-----8-----8-----3-----3-----2------2---------------|
Gb|-----------------------------------------------------------------|
Db|-----------------------------------------------------------------|
Ab|-7------------7-----------2-----------0--------------------------|
Eb|-----------------------------------------------------------------|

eb|---7-----7-----7-----7-----2-----2-----2-----0h2-----------------|
Bb|------8-----8-----8-----8-----3-----3-----2------2---------------|
Gb|-----------------------------------------------------------------|
Db|-----------------------------------------------------------------|
Ab|-7------------7-----------2-----------1--------------------------|
Eb|-----------------------------------------------------------------|

eb|---7-----7-----7-----7-----2-----2-----2-----2-------------------|
Bb|------8-----8-----8-----8-----3-----3-----2------2---------------|
Gb|-----------------------------------------------------------------|
Db|-----------------------------------------------------------------|
Ab|-7------------7-----------2-----------0--------------------------|
Eb|-----------------------------------------------------------------|

eb|---7-----7-----7-----7-----2-----2-----2-----0h2-----------------|
Bb|------8-----8-----8-----8-----3-----3-----2------2---------------|
Gb|-----------------------------------------------------------------|
Db|-----------------------------------------------------------------|
Ab|-7------------7-----------2-----------1--------------------------|
Eb|-----------------------------------------------------------------|

eb|--------------------------------2-----0--------2-----2-----------|
Bb|-2-----2---------3-----3--------3--------------2-----2-----------|
Gb|-2-----2---------4-----4-----------------------------------------|
Db|-----------------------------------------------------------------|
Ab|--------------------------------2-----2--------0-----0-----------|
Eb|-2-----2---------3-----3-----------------------------------------|

eb|-2-----2---------3-----3--------2-----2--------0-----0-----------|
Bb|-2-----2---------3-----3--------3-----3---3----2-----2-----------|
Gb|-2-----2---------4-----4-----------------------2-----2-----------|
Db|-----------------------------------------------------------------|
Ab|--------------------------------2-----2--------0-----0-----------|
Eb|-2-----2---------3-----3-----------------------------------------|

eb|--------------------------------2-----0--------2-----2-----------|
Bb|-2-----2---------3-----3--------3--------------2-----2-----------|
Gb|-2-----2---------4-----4-----------------------------------------|
Db|-----------------------------------------------------------------|
Ab|--------------------------------2-----2--------0-----0-----------|
Eb|-2-----2---------3-----3-----------------------------------------|

eb|-2-----2---------3-----3--------2-----2--------0-----0-----------|
Bb|-2-----2---------3-----3--------3-----3---3----2-----2-----------|
Gb|-2-----2---------4-----4-----------------------2-----2-----------|
Db|-----------------------------------------------------------------|
Ab|--------------------------------2-----2--------0-----0-----------|
Eb|-2-----2---------3-----3-----------------------------------------|

eb|-2-----2--------2-----0---------0---0---2-2---2----------2--0----|
Bb|-3-----2--------2-----0---------0---0---2-2---3--3--2h3----------|
Gb|-----------------------------------------------------------------|
Db|-----------------------------------------------------------------|
Ab|-2-----1--------0-----------------------0-0---2------------------|
Eb|--------------0-------4-------0-3---3----------------------------|

eb|-2-----2--------2-----0---------0---0---2-2---2------------------|
Bb|-3-----2--------2-----0---------0---0---2-2---3------------------|
Gb|-----------------------------------------------------------------|
Db|-----------------------------------------------------------------|
Ab|-2-----1--------0-----------------------0-0---2------------------|
Eb|--------------0-------4---------3---3----------------------------|


| /  slide up
| \  slide down
| h  hammer-on
| p  pull-off
| ~  vibrato
| +  harmonic
| x  Mute note
===================================================================
            
Submit corrections

comments powered by Disqus
↑ Back to top | Racoon Tabs for Never Alone. Lyrics for acoustic guitar and electric guitar. 1 Tablatures and chords are parodies/interpretations of the original songs. You may use it for private study, scholarship, research or language learning purposes only