>
 >
Lucky All My Life

Lucky All My Life Guitar Tabs

Racoon - Lucky All My Life chords, tabs, tablatures, lyrics

Guitar lessons | Add/correct | Request | Top 50 tabs Artists:  A B C D E F G H I J K L M N O P Q R S T U V W X Y Z 0-9

Lucky All My Life Guitar Tabs – Racoon

CD, Sheet music, Poster

Do you like Lucky All My Life? Share with your friends now
Tabs
#------------------------------------------------------------------------------##


Racoon - Lucky all my life

Tune guitar one step down

Chords

a=10
b=12

C	x32010
Dm/f	1x3231
Dm	xx0231
Em7/g	320000
C5	8xx08x
Gmaj7/b	7xx07x
Em	bxx0bx
A7/c#	9xx0ax
F	133211
G	320033
C	335553
Am	x02210



Intro:
  C               Dm/f            Dm              Em7/g
|---------------------------------1---------1-----0------------|
|-1---------1-----3---------3-----------3----------------------|
|-------0---------------2-------------2-------2-------0--------|
|-----2---------------3-------3---0----------------------------|
|-3-----------0------------------------------------------0---2-|
|-----------------1-------------------------------3------------|
 4 x


Verse 1:
  C               Dm/f            Dm              Em7/g
|---------------------------------1---------1-----0------------|
|-1---------1-----3---------3-----------3----------------------|
|-------0---------------2-------------2-------2-------0--------|
|-----2---------------3-------3---0----------------------------|
|-3-----------0------------------------------------------0---2-|
|-----------------1-------------------------------3------------|
  She called and said you'd stuff your letter

  C               Dm/f            Dm              Em7/g
|---------------------------------1---------1-----0------------|
|-1---------1-----3---------3-----------3----------------------|
|-------0---------------2-------------2-------2-------0--------|
|-----2---------------3-------3---0----------------------------|
|-3-----------0------------------------------------------0---2-|
|-----------------1-------------------------------3------------|
  Yeah, you can sweet talk all you like

  C               Dm/f            Dm              Em7/g
|---------------------------------1---------1-----0------------|
|-1---------1-----3---------3-----------3----------------------|
|-------0---------------2-------------2-------2-------0--------|
|-----2---------------3-------3---0----------------------------|
|-3-----------0------------------------------------------0---2-|
|-----------------1-------------------------------3------------|
  But pretty words don't make it better, you let the fire burn all night


Verse 2:
  C               Dm/f            Dm              Em7/g
|---------------------------------1---------1-----0------------|
|-1---------1-----3---------3-----------3----------------------|
|-------0---------------2-------------2-------2-------0--------|
|-----2---------------3-------3---0----------------------------|
|-3-----------0------------------------------------------0---2-|
|-----------------1-------------------------------3------------|
  The frontdoor was open, I left my keys in

  C               Dm/f            Dm              Em7/g
|---------------------------------1---------1-----0------------|
|-1---------1-----3---------3-----------3----------------------|
|-------0---------------2-------------2-------2-------0--------|
|-----2---------------3-------3---0----------------------------|
|-3-----------0------------------------------------------0---2-|
|-----------------1-------------------------------3------------|
  I Guess I've beenb lucky all my life

  C               Dm/f            Dm              Em7/g
|---------------------------------1---------1-----0------------|
|-1---------1-----3---------3-----------3----------------------|
|-------0---------------2-------------2-------2-------0--------|
|-----2---------------3-------3---0----------------------------|
|-3-----------0------------------------------------------0---2-|
|-----------------1-------------------------------3------------|
  Now she's so fed up with my easyness, I won't get any tonight

  C               Dm/f            G
|----------------------------------------------------------------|
|-1---------1-----3---------3-----3---------3-----3---------3///-|
|-------0---------------2---------------0-----0---------0-----0--|
|-----2-------0-------3-------3-------0---------------0----------|
|-3--------------------------------------------------------------|
|-----------------1---------------3---------------3/////////////-|
  Oh no


Bridge:
  C5              Gmaj7/b         Em
|----------------------------------------------------------------------|
|/8---------8-----7---------7/////12----------12------13-------12---10-|
|------0---------------0-----------------0----------------0------------|
|----------------------------------------------------------------------|
|----------------------------------------------------------------------|
|/8---8-------8---7---7-------7///12---12--------12---12-------12---10-|
  Oooh,           Oooh,           Oooh

  C5              Gmaj7/b         A7/c#                             C5
|--------------------------------------------------------------------------------------|
|-8---------8-----7---------7-----10---------10----10---------10-----8---------8-----8-|
|-------0---------------0----------------0----------------0----------------0-----------|
|--------------------------------------------------------------------------------------|
|--------------------------------------------------------------------------------------|
|-8---8-------8---7---7-------7----9---9--------9---9---9--------9---8---8-------8---8-|
  Oooh,           Oooh,            Oooh,                             Oooh

  C               Dm/f            Dm              Em7/g
|---------------------------------1---------1-----0------------|
|-1---------1-----3---------3-----------3----------------------|
|-------0---------------2-------------2-------2-------0--------|
|-----2---------------3-------3---0----------------------------|
|-3-----------0------------------------------------------0---2-|
|-----------------1-------------------------------3------------|

  C               Dm/f            Dm              Em7/g
|---------------------------------1---------1-----0------------|
|-1---------1-----3---------3-----------3----------------------|
|-------0---------------2-------------2-------2-------0--------|
|-----2---------------3-------3---0----------------------------|
|-3-----------0------------------------------------------0---2-|
|-----------------1-------------------------------3------------|


Verse 3:
  C               Dm/f            Dm              Em7/g
|---------------------------------1---------1-----0------------|
|-1---------1-----3---------3-----------3----------------------|
|-------0---------------2-------------2-------2-------0--------|
|-----2---------------3-------3---0----------------------------|
|-3-----------0------------------------------------------0---2-|
|-----------------1-------------------------------3------------|
  I don't know why I gave my love away

  C               Dm/f            Dm              Em7/g
|---------------------------------1---------1-----0------------|
|-1---------1-----3---------3-----------3----------------------|
|-------0---------------2-------------2-------2-------0--------|
|-----2---------------3-------3---0----------------------------|
|-3-----------0------------------------------------------0---2-|
|-----------------1-------------------------------3------------|
  Sure don't know why you took the bait

  C               Dm/f            Dm              Em7/g
|---------------------------------1---------1-----0------------|
|-1---------1-----3---------3-----------3----------------------|
|-------0---------------2-------------2-------2-------0--------|
|-----2---------------3-------3---0----------------------------|
|-3-----------0------------------------------------------0---2-|
|-----------------1-------------------------------3------------|
  Maybe the balance leans toward loving a bit more than it did to hating me


Verse 4:
  C               Dm/f            Dm              Em7/g
|---------------------------------1---------1-----0------------|
|-1---------1-----3---------3-----------3----------------------|
|-------0---------------2-------------2-------2-------0--------|
|-----2---------------3-------3---0----------------------------|
|-3-----------0------------------------------------------0---2-|
|-----------------1-------------------------------3------------|
  I'll apologize for everything

  C               Dm/f            Dm              Em7/g
|---------------------------------1---------1-----0------------|
|-1---------1-----3---------3-----------3----------------------|
|-------0---------------2-------------2-------2-------0--------|
|-----2---------------3-------3---0----------------------------|
|-3-----------0------------------------------------------0---2-|
|-----------------1-------------------------------3------------|
  For all the times I done you wrong, wrong, wrong, wrong

  C               Dm/f            Dm              Em7/g
|---------------------------------1---------1-----0------------|
|-1---------1-----3---------3-----------3----------------------|
|-------0---------------2-------------2-------2-------0--------|
|-----2---------------3-------3---0----------------------------|
|-3-----------0------------------------------------------0---2-|
|-----------------1-------------------------------3------------|
  But I've gathered all my dreams around you, if you'll put them with your own

|-------------------------------|
|-1-----1---3-----3---3-----3---|
|-----0---------2---------0---0-|
|---2-----0---3-----3---0-------|
|-3-----------------------------|
|-----------1---------3---------|
  Where they belong


Chorus:
  F               G               C       G       Am                
|-----------------------------------------------------------3---|
|-1---------1-----3---------3-----5-------3-------1-----------1-|
|-------2---------------0-------------0-----------------2-------|
|-----3-------3-------0-------0---------------0-------2---------|
|---------------------------------3-------2-------0-------------|
|-1---------------3---------------------------------------------|
  Okay, okay, okay my lovely,             

  Am              F               Em7/g
|-0---------0-----1---------1-----0-----------|
|-------1---------------1-------------------0-|
|-----2-------2-------2-------2---------0-----|
|-----------------2-------------------0-----0-|
|-0-------------------------------------------|
|---------------------------------3-----------|
  I will always look for other ways to 

  F               G               C       G       Am    
|-----------------------------------------------------------3---|
|-1---------1-----3---------3-----5-------3-------1-----------1-|
|-------2---------------0-------------0-----------------2-------|
|-----3-------3-------0-------0---------------0-------2---------|
|---------------------------------3-------2-------0-------------|
|-1---------------3---------------------------------------------|
  say, to say, to say you're lovely,      

  Am              Dm              Dm              G7              Em7/g
|-0---------0-----1---------1-----0---------0-----1---------1-----0---------0---|
|-------1---------------3---------------3---------------------------------------|
|-----2-------2-------2-------2-------2-------2---------0---------------0-------|
|-----------------0---------------0-------------------0-------0-------0-------0-|
|-0-----------------------------------------------------------------------------|
|-------------------------------------------------3---------------3-------------|
  I will always look for better ways to say that I love you anyway

  C               Dm/f            Dm              Em7/g
|---------------------------------1---------1-----0------------|
|-1---------1-----3---------3-----------3----------------------|
|-------0---------------2-------------2-------2-------0--------|
|-----2---------------3-------3---0----------------------------|
|-3-----------0------------------------------------------0---2-|
|-----------------1-------------------------------3------------|
                                  Oh I love you anyway

  C               Dm/f            Dm              Em7/g
|---------------------------------1---------1-----0------------|
|-1---------1-----3---------3-----------3----------------------|
|-------0---------------2-------------2-------2-------0--------|
|-----2---------------3-------3---0----------------------------|
|-3-----------0------------------------------------------0---2-|
|-----------------1-------------------------------3------------|
                                  Oh

Solo:
  C               Dm/f            Dm              Em7/g
|---------------------------------1---------1-----0------------|
|-1---------1-----3---------3-----------3----------------------|
|-------0---------------2-------------2-------2-------0--------|
|-----2---------------3-------3---0----------------------------|
|-3-----------0------------------------------------------0---2-|
|-----------------1-------------------------------3------------|

  C               Dm/f            Dm              Em7/g
|---------------------------------1---------1-----0------------|
|-1---------1-----3---------3-----------3----------------------|
|-------0---------------2-------------2-------2-------0--------|
|-----2---------------3-------3---0----------------------------|
|-3-----------0------------------------------------------0---2-|
|-----------------1-------------------------------3------------|

  C               Dm/f            Dm              Em7/g
|---------------------------------1---------1-----0------------|
|-1---------1-----3---------3-----------3----------------------|
|-------0---------------2-------------2-------2-------0--------|
|-----2---------------3-------3---0----------------------------|
|-3-----------0------------------------------------------0---2-|
|-----------------1-------------------------------3------------|

  C               Dm/f            G
|---------------------------------------------------------------|
|-1---------1-----3---------3-----3---------3-----3---------3---|
|-------0---------------2---------------0-----0---------0-----0-|
|-----2-------0-------3-------3-------0---------------0---------|
|-3-------------------------------------------------------------|
|-----------------1---------------3---------------3-------------|


Chorus:
  F               G               C       G       Am                
|-----------------------------------------------------------3---|
|-1---------1-----3---------3-----5-------3-------1-----------1-|
|-------2---------------0-------------0-----------------2-------|
|-----3-------3-------0-------0---------------0-------2---------|
|---------------------------------3-------2-------0-------------|
|-1---------------3---------------------------------------------|
  Okay, okay, okay my lovely,             

  Am              F               Em7/g
|-0---------0-----1---------1-----0-----------|
|-------1---------------1-------------------0-|
|-----2-------2-------2-------2---------0-----|
|-----------------2-------------------0-----0-|
|-0-------------------------------------------|
|---------------------------------3-----------|
  I will always look for other ways to 

  F               G               C       G       Am    
|-----------------------------------------------------------3---|
|-1---------1-----3---------3-----5-------3-------1-----------1-|
|-------2---------------0-------------0-----------------2-------|
|-----3-------3-------0-------0---------------0-------2---------|
|---------------------------------3-------2-------0-------------|
|-1---------------3---------------------------------------------|
  say, to say, to say you're lovely,      

  Am              Dm              Dm              G7              Em7/g
|-0---------0-----1---------1-----0---------0-----1---------1-----0---------0---|
|-------1---------------3---------------3---------------------------------------|
|-----2-------2-------2-------2-------2-------2---------0---------------0-------|
|-----------------0---------------0-------------------0-------0-------0-------0-|
|-0-----------------------------------------------------------------------------|
|-------------------------------------------------3---------------3-------------|
  I will always look for better ways to say that I love you anyway

  C               Dm/f            Dm              Em7/g
|---------------------------------1---------1-----0------------|
|-1---------1-----3---------3-----------3----------------------|
|-------0---------------2-------------2-------2-------0--------|
|-----2---------------3-------3---0----------------------------|
|-3-----------0------------------------------------------0---2-|
|-----------------1-------------------------------3------------|
                                  Oh I love you anyway

  C               Dm/f            Dm              Em7/g         C
|---------------------------------1---------1-----0---------------|
|-1---------1-----3---------3-----------3---------------3-------1-|
|-------0---------------2-------------2-------2-------0---------0-|
|-----2---------------3-------3---0-----------------------------2-|
|-3-----------0---------------------------------------------2---3-|
|-----------------1-------------------------------3---------------|
                                  I love you anyway





Comments


Popular Racoon tabs & chords
Dont Give Up The Fight Chords
Liverpool Rain 1 Chords
Love You More Chords
Kingsize Intro Tabs
Laugh About It 2 Tabs
Oceaan 1 Tabs
Blow Your Tears Ukulele
Dont Hold Me Down Ukulele
Freedom Ukulele
Took A Hit Ukulele


Song lyrics



↑ Back to top | Tablatures and chords are parodies/interpretations of the original songs. You may use it for private study, scholarship, research or language learning purposes only
© 2014 AZChords.com Contact us | Privacy policy | DMCA | Add/correct tabs | Request tabs | Top 50 tabs