>
 >
Good And Ugly

Good And Ugly Guitar Tabs

Racoon - Good And Ugly chords, tabs, tablatures, lyrics

Guitar lessons | Add/correct | Request | Top 50 tabs Artists:  A B C D E F G H I J K L M N O P Q R S T U V W X Y Z 0-9

Good And Ugly Guitar Tabs – Racoon

CD, Sheet music, Poster

Do you like Good And Ugly? Share with your friends now
ChordsTabsUkulele

**********************************************************************************************
This is the first tab for me to submit, but I think it's pretty accurate. If you have 
comments, suggestions and/or improvements, feel free to use this tab as a template for 
more accurate version.

Have Fun!

Steef Gijsbers
***********************************************************************************************

Intro + Verse

chords:
..:EADGBe
Am|x0221x
F |1x3213
F |1x3210

symbols:
* = do not let the note ring / leave a rest
h = hammer on


>. + . + . + . + . + . + . + . + . + . + . + . + . + . + . + . + .
e:----------------|---------------|--------------3|---------------|
B:-----1*--0h1----|--1*----0h1----|----1*--0h1----|--1-----0h1----|
G:-----2*--2-----2|------2-------2|----2*--2------|------2-------2|
D:---------2------|------------2--|------------3--|------------3--|
A:-0-----------0--|--------0------|---------------|---------------|
E:----------------|---------------|1-------1------|--------1------|

>. + . + . + . + . + . + . + . + . + . + . + . + . + . + . + . + .
e:----------------|---------------|--------------0|---------------|
B:-----1*--0h1----|--1*----0h1----|----1*--0h1----|--1-------1----|
G:-----2*--2-----2|------2-------2|----2*--2------|--------2---2--|
D:---------2------|------------2--|------------3--|------3-------3|
A:-0-----------0--|--------0------|---------------|---------------|
E:----------------|---------------|1-------1------|---------------|


Bridge

chords (Play them like power-chords; i.e. always strum down and no further then the G-string):
.....:EADGBe
Dm/F.|1x0231
Am ..|x02210
C ...|x32010
G/B .|x20003
G ...|3x0003


>. + . + . + . + . + . + . + . + .
e:----------------|---------------|
B:----------------|---------------|
G:-2---2-2---2-2-2|2---2-2---2-2-2|
D:-0---0-0---0-0-0|2---2-2---2-2-2|
A:----------------|0---0-0---0-0-0|
E:-1---1-1---1-1-1|---------------| (3x)
.1)love........... save..... what if..
.2)love........... brave.... what if..
.3)love........... save..... what if..

>. + . + . + . + . + . + . + . + . + . + . + . + .|| INTRO
e:----------------|---------------|---------------||-----------------|
B:----------------|---------------|---------------||-----1*--0h1-----|
G:-0---0-0---0----|0-----0-----2--|--0-----2---0--||-----2*--2-----2-|
D:-0---0-0---0----|2-----0-----2--|--0-----2---0--||---------2-------|
A:----------------|3-----2-----0--|--------0------||-0-----------0---|
E:-3---3-3---3----|---------------|--3---------3--||-----------------|
.4)love............save..a.....way...from..home


Chorus

chords:
..:EADGBe
Am|x02210
C |x32010
F |133211

symbols:
^ = strum down
. = strum up


>. ^ . ^ . ^ . ^ . ^ . ^ . ^ . ^ . ^ . ^ . ^ . ^ . ^ . ^ . ^ . ^ .
e:-0---0-0---0-0-0|0---0-0-3---3-3|1---1-1---1-1-1|1---1-1---1-1-1|
B:-1---1-1---1-1-1|1---1-1-0---0-0|1---1-1---1-1-1|1---1-1---1-1-1|
G:-2---2-2---2-2-2|0---0-0-0---0-0|2---2-2---2-2-2|2---2-2---2-2-2|
D:-2---2-2---2-2-2|2---2-2-0---0-0|3---3-3---3-3-3|3---3-3---3-3-3|
A:-0---0-0---0-0-0|3---3-3--------|3---3-3---3-3-3|3---3-3---3-3-3|
E:----------------|--------3---3-3|1---1-1---1-1-1|1---1-1---1-1-1|

//////////////////////////////////////////////////////////////////////
----------------------------------------------------------------------
//////////////////////////////////////////////////////////////////////

Intro (2x)

Verse 1:

We call for love and we think that it's romantic,
We hear, believe and we never question why.
We chew on live without looking for an answer,
We stare at the walls and give up before we try.


Bridge:

.1) What if love keeps us save,
.2) What if love keeps us brave.
.3) What if love keeps us save,
.4) What if love keeps us save a-way from home.


Intro (2x)

Verse 2:

You call it quits be I don't think that it's even,
We're speeding on we run run run out of time.
Steppingstones there's always someone to step on,
Son stay close to me there's a lot between the lines.


Chorus:

So let today go, we both might be dead by tomorrow.
We're good and ugly, lets take out the bad as we go.
Let today go, we both might be dead by tomorrow.
We're good and ugly,
Don't wanna let you go,
Never let you go alone.


Solo (guitar plays intro twice, while blues-harp plays solo)

Verse 3:

We talk to god, we die and prayre in the evening,
We talk about of the good or bad we won.
I guess people show that beauty is often evil,
Son stay close to me I'll show you my right from wrong.


Chorus:

And let today go, we both might be dead by tomorrow.
We're good and ugly, lets take out the bad as we go.
Let today go, we both might be dead by tomorrow.
We're good and ugly,
Dont wanna let you go,
Never let you go alone


Outro (guitar plays intro twice, lowers the pitch and ends with a slow strum of Am)


And that's it. Hope you'll enjoy it!





Comments


Popular Racoon tabs & chords
Blow Your Tears Chords
Oceaan 2 Chords
Hero's In Town Tabs
Lose Another Day Tabs
Love You More 1 Tabs
Never Alone Tabs
Oceaan 1 Tabs
Oceaan 3 Tabs
2014 Ukulele
Dont Give Up The Fight Ukulele


Song lyrics



↑ Back to top | Tablatures and chords are parodies/interpretations of the original songs. You may use it for private study, scholarship, research or language learning purposes only
© 2014 AZChords.com Contact us | Privacy policy | DMCA | Add/correct tabs | Request tabs | Top 50 tabs