>
 >
Eric's Bar

Eric's Bar Guitar Tabs

Racoon - Eric's Bar chords, tabs, tablatures, lyrics

Guitar lessons | Add/correct | Request | Top 50 tabs Artists:  A B C D E F G H I J K L M N O P Q R S T U V W X Y Z 0-9

Eric's Bar Guitar Tabs – Racoon

CD, Sheet music, Poster

Do you like Eric's Bar? Share with your friends now
Tabs
Song      : Eric's Bar
Artist    : Racoon
Album     : Here We Go Stereo

______________________________________________________________________
Standard E-Tuning

h    = hammer-on
p    = pull-off
s\   = slide down
s/   = slide up
~~   = hold string
x    = mute
arp  = arpeggio (tonen van een akkoord vlak na elkaar ipv tegelijk spelen)

Chords between brackets "(D#)" is for Bass-guitar
______________________________________________________________________

 |---------------|-----------------|---------------|-----------------|
 |---------------|-----------------|---------------|-----------------|
 |---------------|-----------------|---------------|-------------4p3-|
 |----4------2~--|----4------2-----|----4------2~--|----4------2-----|
 |------0h2h4--0-|------0h2h4--2p0-|------0h2h4--0-|------0h2h4------|
 |-2-------------|-2---------------|-2-------------|-2---------------|



 |---------------|-----------------|---------------|-----------------|
 |---------------|-----------------|---------------|-----------------|
 |---------------|-----------------|---------------|-------------4p3-|
 |----4------2~--|----4------2-----|----4------2~--|----4------2-----|
 |------0h2h4--0-|------0h2h4--2p0-|------0h2h4--0-|------0h2h4------|
 |-2-------------|-2---------------|-2-------------|-2---------------|
                                                       Let's stay in  


 |---------------|-----------------|---------------|---------------|
 |---------------|-----------------|---------------|---------------|
 |---------------|-----------------|---------------|---------------|
 |----4------2~--|----4------2-----|----4------2~--|----4------2---|
 |------0h2h4--0-|------0h2h4--2p0-|------0h2h4--0-|------0h2h4--0-|
 |-2-------------|-2---------------|-2-------------|-2-------------|
 bed, no better   yet Take my bike and go outside      'Cause if I 


 |---------------|-----------------|-------------|-----------|---------------|-----------|
 |---------------|-----------------|--------2----|--------2--|---------------|-----------|
 |---------------|-----------------|-4-4-2h4-2h4-|-4-4-2h4-2-|---------------|-----------|
 |----4------2~--|----4------2-----|-4-4---------|-4-4-------|----4------2~--|----x--x-x-|
 |------0h2h4--0-|------0h2h4--2p0-|-2-2---------|-2-2-------|------0h2h4--0-|----x--x-x-|
 |-2-------------|-2---------------|-------------|-----------|-2-------------|-2--x--x-x-|
---|
don't,and stay inside Then I know                                               Thought I was
                          I'll lose my mind

 |---------------|-----------------|---------------|-----------------|
 |---------------|-----------------|---------------|-----------------|
 |---------------|-----------------|---------------|-----------------|
 |----4------2~--|----4------2-----|----4------2~--|----4------2-----|
 |------0h2h4--0-|------0h2h4--2p0-|------0h2h4--0-|------0h2h4--2p0-|
 |-2-------------|-2---------------|-2-------------|-2---------------|
dead, buried and left. All I did was take a breather   Tied to the

                                                                              arp
 |---------------|-----------------|-------------|-----------|---------------|--------|
 |---------------|-----------------|--------2----|--------2--|---------------|--------|
 |---------------|-----------------|-4-4-2h4-2h4-|-4-4-2h4-2-|---------------|--------|
 |----4------2~--|----4------2-----|-4-4---------|-4-4-------|----4------2~--|-4--4-4-|
 |------0h2h4--0-|------0h2h4--2p0-|-2-2---------|-2-2-------|------0h2h4--0-|-4--4-4-|
 |-2-------------|-2---------------|-------------|-----------|-2-------------|-2--2-2-|
 bed, so I could stay out of                    Yeah right, no way             This is..
                         trouble for a day


   B             B (D#)
..home, this is roots
          E                 F#
This is where you're understood
           B                  B (D#)
Take your bike and leave the car
         E                F#
Going straight to Eric's Bar, to Eric's..


 |---------------|-----------------|---------------|-----------------|
 |---------------|-----------------|---------------|-----------------|
 |---------------|-----------------|---------------|-----------------|
 |----4------2~--|----4------2-----|----4------2~--|----4------2-----|
 |------0h2h4--0-|------0h2h4--2p0-|------0h2h4--0-|------0h2h4--2p0-|
 |-2-------------|-2---------------|-2-------------|-2---------------|
..Bar                                                  'You're on your


 |---------------|-----------------|---------------|---------------|
 |---------------|-----------------|---------------|---------------|
 |---------------|-----------------|---------------|---------------|
 |----4------2~--|----4------2-----|----4------2~--|----4------2---|
 |------0h2h4--0-|------0h2h4--2p0-|------0h2h4--0-|------0h2h4--0-|
 |-2-------------|-2---------------|-2-------------|-2-------------|
  own'was on the phone It's too    stay inside,        So get your
                             hot to         he said

 |---------------|-----------------|-------------|-----------|---------------|----------|
 |---------------|-----------------|--------2----|--------2--|---------------|-----7s\--|
 |---------------|-----------------|-4-4-2h4-2h4-|-4-4-2h4-2-|---------------|-----6s\--|
 |----4------2~--|----4------2-----|-4-4---------|-4-4-------|----4------2~--|----------|
 |------0h2h4--0-|------0h2h4--2p0-|-2-2---------|-2-2-------|------0h2h4--0-|----------|
 |-2-------------|-2---------------|-------------|-----------|-2-------------|-2--------|
shorts and           Let's go        a while,     how the hell is                 We ramble 
         find a smile     grab a beer            that possible a while
 
 |---------------|-----------------|---------------|---------------|
 |---------------|-----------------|---------------|---------------|
 |---------------|-----------------|---------------|---------------|
 |----4------2~--|----4------2-----|----4------2~--|----4------2---|
 |------0h2h4--0-|------0h2h4--2p0-|------0h2h4--0-|------0h2h4--0-|
 |-2-------------|-2---------------|-2-------------|-2-------------|
  on, humming a song, we don't mean to hurt no one      We blow our

                                                                              arp
 |---------------|-----------------|-------------|-----------|---------------|--------|
 |---------------|-----------------|--------2----|--------2--|---------------|--------|
 |---------------|-----------------|-4-4-2h4-2h4-|-4-4-2h4-2-|---------------|--------|
 |----4------2~--|----4------2-----|-4-4---------|-4-4-------|----4------2~--|-4--4-4-|
 |------0h2h4--0-|------0h2h4--2p0-|-2-2---------|-2-2-------|------0h2h4--0-|-4--4-4-|
 |-2-------------|-2---------------|-------------|-----------|-2-------------|-2--2-2-|
 nose in the dresscodes They don't even see us run                              Take a..
                                                 with our worn-out sneakers on 
 
   B           B(D#)
..dive, skinny dip,
       E                F#
it's okay to lose your grip,
           B               B(D#)
feel the breeze, cool the brew,
        E             F#
giving Kimberley the lip


*drums & bass*

You never have to lie, never have to fake,
never lose your fun, never have to hide away


 |--2~~~~~~~~~~~~~~s/4~~~~~~~~~~~~~~s/5~~~~~~~~~~s/7--|
 |--2~~~~~~~~~~~~~~s/4~~~~~~~~~~~~~~s/5~~~~~~~~~~s/7--|
 |----------------------------------------------------|
 |----------------------------------------------------|
 |----------------------------------------------------|
 |----------------------------------------------------|
  These people      they will not    never have   never..
    know you well,    kiss and tell,   to run,


(bass?:F#/D#/E/D#/E/F/F#/B)   <- dit is wat ik er van kan maken, als iemand het beter weet!? graag!
      ..have to run and hide..

           B (D#)
 ..this is roots
          E                 F#
This is where you're understood
           B                  B (D#)
Take your bike and leave the car
         E                F#
'Cause we won't go home by far

         C#            C#(F)
This is home, this is roots
         F#                 G#
This is where you're understood
           C#               C#(F)
Take your bike and leave the car
         F#              G#
Going straight to Eric's Bar, to Eric's..


 |-------------|-------------|---|
 |-------------|-------------|---|
 |-------------|-------------|---|
 |----6----4~--|----6----4---|---|
 |------4h6----|------4h6----|---|
 |-4---------7-|-4---------7-|-4-|
..Bar            Yeah, this is ho~ome



;-)  -=La Strada Rocks=-  (-;





Comments


Popular Racoon tabs & chords
Shoes Of Lightning Chords
Took A Hit 2 Chords
Brother Tabs
Laugh About It 2 Tabs
Lose Another Day Tabs
Never Alone Tabs
Oceaan 1 Tabs
Walk Away Tabs
Clean Again Ukulele
Laugh About It Ukulele


Song lyrics



↑ Back to top | Tablatures and chords are parodies/interpretations of the original songs. You may use it for private study, scholarship, research or language learning purposes only
© 2014 AZChords.com Contact us | Privacy policy | DMCA | Add/correct tabs | Request tabs | Top 50 tabs