>
 >
Y R O

Y R O Guitar Tabs

Racer X - Y R O chords, tabs, tablatures, lyrics

Guitar lessons | Add/correct | Request | Top 50 tabs Artists:  A B C D E F G H I J K L M N O P Q R S T U V W X Y Z 0-9

Y R O Guitar Tabs – Racer X

CD, Sheet music, Poster

Do you like Y R O? Share with your friends now
Tabs
Racer X    (Paul Gilbert)
"YRO"  (stands for Yngwie Rip Off)
<> natural harmonics
s slide
* artifical harmonic

|------------------------0--0-------------------------|---------------------
|---------------------------0-------------------------|---------------------
|---------------------0-------------------------------|---------------------
|-2--------9s------------------3--2--0----------------|------------9s-------
|-2--------7s---3--2--------------------3--2--0-------|------------7s---s7--
|-0--0--0----------------------------------------3--2-|-0----0--0-----------


|------------------|------------------------0--0-------------------------|
|------------------|---------------------------0-------------------------|
|------4--5~---4~--|---------------------0-------------------------------|
|4--5--------------|-2--------9s------------------3--2--0----------------|
|------------------|-2--------7s---3--2--------------------3--2--0-------|
|------------------|-0--0--0----------------------------------------3--2-|
|                  |                                                     |
|                  |                                                     |
|------------------|-----------------------------------------------------|
|------------------|-----------------------------------------------------|
|------------------|-----------------------------------------------------|
|------------------|-----------------------------------------------------|
|------------------|5h7p5p3-7s9p7p5-9p5h7h10p9p7-10s12p10p9-10s12p10p9---|
|------------------|-----------------------------------------------------|


|--------------------------------------------------------------------------|
|--------------------------------------------------------------------------|
|--------------------------------------------------------------------------|
|-----------9s---4t5p4p2-t5h7p5p4-t7p4h5h9p7p5-t9h10p9p7-t9h10p9p7s--------|
|-----------7s-------------------------------------------------------------|
|-0---0--0-----------------------------------------------------------------|
|                                                                          |
|                                                                          |
|--------------------------------------------------------------------------|
|-----------------5--------------------------------------------------------|
|--------------------------4-----------------------------5~----------------|
|--------------------------------------------------------------------------|
|--------------------------------------------------------------------------|
|--------------------------------------------------------------------------|


|----------------------------------------0--0------------------------------|
|-------------------------------------------0------------------------------|
|-------------------------------------0------------------------------------|
|-----------------------9s---------------------3--2--0---------------------|
|-----------<7>---------7s-----3--2---------------------3--2--0------------|
|---0------------<7>---------------------------------------------3--2------|
|                                                                          |
|                                                                          |
|--------------------------------------------------------------------------|
|------------------------------s5------------------------------------------|
|-------------------------------------4--------5~--------------------------|
|--------------------------------------------------------------------------|
|--------------------------------------------------------------------------|
|--------------------------------------------------------------------------|


|--------------------------------------------------------------------------|
|------------------------------------------10--12--13----------------------|
|--------------------------------9--11-12----------------------------------|
|------------9s---------------9--------------------------------------------|
|------------7s------------------------------------------------------------|
|-0----0--0--------0--0--0-------------------------------------------------|
|                                                                          |
|                                     w/bar                                |
|--------------------<12>-------------<5>b------rb<5>----------------------|
|---------------<12>------<7>-----<5>--------------------------------------|
|-(5)~------------------------<5>------------------------------------------|
|--------------------------------------------------------------------------|
|--------------------------------------------------------------------------|
|--------------------------------------------------------------------------|


|-------------------------------0--0---------------------------------------|
|--s17s----------------------------0---------------------------------------|
|----------------------------0---------------------------------------------|
|----------------9s--------------------3--2--0-----------------------------|
|----------------7s---3--2----------------------3--2--0--------------------|
|--------0---0-------------------------------------------3--2--------------|
|                                                                          |
|dive w/bar                                                                |
|-<5>----------------------------------------------------------------------|
|--------------------s5----------------------------------------------------|
|---------------------------4~----------5~---------------------------------|
|--------------------------------------------------------------------------|
|--------------------------------------------------------------------------|
|--------------------------------------------------------------------------|

                           dive
|-----5--------5--------5--------------15----17---19s----|
|--5-----5--------5--------7\----------------------------|
|-----------7--------7-----------------------------------|
|--------------------------------------------------------|
|--------------------------------------------------------|
|--------------------------------------------------------|
|                                                        |
|                     w/bar 1 1/2                        |
|--------------------------------------------------------|
|--------------------<7>---------------------------------|
|---------------<5>--------------------------------------|
|----------<7>-------------------------------------------|
|--------------------------------------------------------|
|--------------------------------------------------------|


|-20-19-17------------------------------------------------------------------
|----------20-19-17---------------------------------------------------------
|-------------------19-17-16----------------16-17-19-17-16------------------
|----------------------------19-17-16-17-19----------------19-17-16---------
|-------------------------------------------------------------------19-17---
|---------------------------------------------------------------------------

                               mute slightly--------------
------------------------------|----------------------------------------------|
------------------------------|----------------------------------------------|
------------------------------|--2------4------2------4-------7-5-4---5-4----|
------------------------------|----2------2------2------2-----------7-----7-5|
-15----------------15-17-19s--|------2------3------3------3------------------|
----19-17-15-17-19------------|----------------------------------------------|


|-----------------------|-------------------|-------------------------------
|-----------------------|-------------------|-------------------------------
|--4~-----7-----s12~----|--11~------s16~----|-2-----4-----2-----4-----------
|-----------------------|-------------------|---2-----2-----2-----2---------
|-----------------------|-------------------|-----2-----3-----3-----3-------
|-----------------------|-------------------|-------------------------------

* a.h.
-------------------|-----------------------------------|
-------------------|------------------------<5>--------|
--7-5-4---5-4------|-4*~------------------------<5>~---|
--------7-----7-5--|------s7----5----4s5-5-------------|
-------------------|-----------------------------------|
-------------------|-----------------------------------|


|---------------------------------------------|-----------------------------   
|---------------------------------------------|-----------------------------   
|-2-----4-----2-----4-------5h7p5p4---4-------|-<4>~---7~---12~---s14~------   
|---2-----2-----2-----2-------------7---7-5-4-|-----------------------------   
|-----2-----3-----3-----3---------------------|-----------------------------   
|---------------------------------------------|-----------------------------   


-12s14-15bf-rb15s--|-------------------------------------------------------|
-------------------|-------------------------------------------------------|
-------------------|-2-----4-----2-----4---------4h5p4---4-7p5-7p5p4-------|
-------------------|---2-----2-----2-------4h5h7-------7-------------7-----|
-------------------|-----2-----3-----3-------------------------------------|
-------------------|-------------------------------------------------------|


|-------------------------------------------|
|--------------------------13-15-17--22bf~--|
|-4---------------12h14h16------------------|
|---5----12h14h16---------------------------|
|-----7-------------------------------------|
|-------------------------------------------|
|                                           |
|                                           |
|------------------------------------19bf~--|
|-5-----------------------------------------|
|---4-----------------------14h16h17--------|
|-----5-----------14h16h17------------------|
|--------14h15h17---------------------------|
|-------------------------------------------|


|---------------------------0--0-------------------------|------------------
|------------------------------0-------------------------|------------------
|------------------------0-------------------------------|------------------
|-------------9s------------------3--2--0----------------|------------9s----
|-2-----------7s---3--2--------------------3--2--0-------|------------7s----
|-0----0--0-----------------------------------------3--2-|-0----0--0--------
|                                                        |
|                                                        |
|--------------------------------------------------------|------------------
|-------------5------------------------------------------|------------------
|-----------------------4---------5~---------------------|-(5)~-------------
|--------------------------------------------------------|------------------
|--------------------------------------------------------|------------------
|--------------------------------------------------------|------------------


|-------------------------------|----------------------0-0-----------------|
|-------------------------------|------------------------0-----------------|
|------------4--5~--------------|--------------------0------3-2-0----------|
|------4--5---------------------|----------9s---------------------3-2-0----|
|--7----------------------------|-2--------7s--3--2---------------------3-2|
|-------------------------------|-0--0--0----------------------------------|
|                               |                                          |
|                               |                                          |
|-----<12>-----<7>-<5>bf-<5>----|------------------------------------------|
|<12>------<7>------------------|---------------5--------------------------|
|-------------------------------|--------------------4--------5~-----------|
|-------------------------------|------------------------------------------|
|-------------------------------|------------------------------------------|
|-------------------------------|------------------------------------------|


|--------------------------------------------|
|----------------------------<7>-------------|
|------------------------<5>-----<7>---------|
|--------------------<5>-------------<7>~----|
|----------------<5>-------------------------|
|-0----0--0---0------------------------------|
|                                            |
|                                            |
|--------------------------------------------|
|-----------------------------<7>------------|
|-------------------------<5>-----<7>--------|
|---------------------<5>-------------<7>~---|
|-----------------<5>------------------------|
|--------------------------------------------|


|-----------------------|-----------------------|----------------------|----
|-----------------------|-----------------------|----------------------|----
|------------------9----|-----------------------|----9-10-9-12-10-9----|9-10
|-10-12-10-9-10-12---10-|-12-10-9----------9-10-|-12----------------12-|----
|-----------------------|---------12-10-12------|----------------------|----
|-----------------------|-----------------------|----------------------|----


----------------|-----------------------|-------------------------|---------
----------------|-----------------------|-------------------------|---------
9----------9-10-|-12-10-9-------9-14-12-|-10----------------12-10-|-9-------
--12-10-12------|---------12-11---------|----14-12-10----12-------|---12-10-
----------------|-----------------------|-------------14----------|---------
----------------|-----------------------|-------------------------|---------


--------------|----------------------|-----------------------|--------------
--------------|----------------------|-----------------------|--------------
---------9----|----------------------|------------------9----|--------------
-9----12---12-|-10-9---------------9-|-10-12-10-9-10-12---10-|-12-10-9------
---12---------|------12-10-9-10-12---|-----------------------|---------12-10
--------------|----------------------|-----------------------|--------------


---------|----------------------|----------------------|--------------------
---------|----------------------|----------------------|--------------------
---------|----9-10-9-12-10-9----|-9-10-9----------9-10-|-12-10-9-------9-14-
----9-10-|-12----------------12-|--------12-10-12------|---------12-11------
-12------|----------------------|----------------------|--------------------
---------|----------------------|----------------------|--------------------


----|-------------------------|----------------------|---------------------|
----|-------------------------|----------------------|---------------------|
-12-|-10----------------12-10-|-9---------------10---|---------------------|
----|----14-12-10----12-------|---12-10-9----10----9-|-12-10-----------9-12|
----|-------------14----------|-----------12---------|-------9-12-11-9-----|
----|-------------------------|----------------------|---------------------|


|-----------------------|-----------------------|--------------------------|
|-----------------------|-----------------------|--------------------------|
|-----------------------|-----------------------|---------9-10-12-14s12----|
|-10-9------------12-10-|-9----------9-10-12-10-|-9-10-12------------------|
|------12-10-9-12-------|---12-10-12------------|--------------------------|
|-----------------------|-----------------------|--------------------------|


|------------------------|-----------------------|-------------------------|
|------------------------|-----------------------|-------------------------|
|-14-12-11-12-14-12-10s9-|-12-10-9-10-12-10-9----|-10-9----9-10-9----------|
|------------------------|--------------------12-|------13--------12-10----|
|------------------------|-----------------------|-------------------------|
|------------------------|-----------------------|-------------------------|


|----------------------|-----------------------|---------------------------|
|----------------------|-----------------------|---------------10-12-13----|
|-9----------9---------|------------------9-10-|-12-10-9-10-12-------------|
|---12-11-12---12-10-9-|-10-------9-10-12------|---------------------------|
|----------------------|----10-12--------------|---------------------------|
|----------------------|-----------------------|---------------------------|


|-------------------------|-------------------------|----------------------|
|-10-12-13-12-15-13-12----|-10----------12-10-------|-----------------10-12|
|----------------------14-|----12-11-12-------12-10-|-9-12-10-9-10-12------|
|-------------------------|-------------------------|----------------------|
|-------------------------|-------------------------|----------------------|
|-------------------------|-------------------------|----------------------|


|-------------------------|-----------------|----------12-13--16p13p12s10---
|-13-12-13-12-15-13-12----|-----------------|-12-13-15----------------------
|----------------------14-|-13--------------|-------------------------------
|-------------------------|-----------------|-------------------------------
|-------------------------|-----------------|-------------------------------
|-------------------------|-----------------|-------------------------------


-13p12p10--|----10-----------------10h12h13p12p10-|-------------------------|
-----------|-13----13-12-10-12-13-----------------|-13-12-10----------------|
-----------|--------------------------------------|----------12-10-9--------|
-----------|--------------------------------------|------------------12-10-9|
-----------|--------------------------------------|-------------------------|
-----------|--------------------------------------|-------------------------|


|-----------------|12h17t20p12-17p12h17p12h17t20p17p12h20p17h20-20-20-22-22bf
|-----------------|---------------------------------------------------------
|-----------------|---------------------------------------------------------
|-----------------|---------------------------------------------------------
|-12--11----------|---------------------------------------------------------
|-----------------|---------------------------------------------------------


-22bf--22bf--|-20-19----------19-20-19h20p19--------------------------------
-------------|-------22-20-22----------------22-20-22-20-18-20-18-17----17--
-------------|-------------------------------------------------------19-----
-------------|--------------------------------------------------------------
-------------|--------------------------------------------------------------
-------------|--------------------------------------------------------------


---------------------|------------------------------------------------------
---------------------|------------------------------------------------------
-19bf-rb19p17--------|------------------------------------------------------
---------------------|----------------------------14----------------14-15-14
---------------19~---|-12-14-15-14-15-17-14-15-17----17-15-14-15-17---------
---------------------|------------------------------------------------------


-------14----------------14----14----------------14----14------------------|
-15-17----17-15-14-15-17----17----17-15-14-15-17----17----17-15-14-15-17---|


|---------------------------------------------------------------------------
|---------------------------------------------17h18p17----------------------
|-14h16p14----14-17--16-17p16p14-16bf--rb16~-----------19-17-16h17----16-17-
|----------17------------------------------------------------------19-------
|---------------------------------------------------------------------------
|---------------------------------------------------------------------------


----------------------17-|-------------17h19p17----17-20-19h20p19p17----17--
-16-17s18----17-18-20----|-20-17h18h20----------20-------------------20-----
----------19-------------|--------------------------------------------------
-------------------------|--------------------------------------------------
-------------------------|--------------------------------------------------
-------------------------|--------------------------------------------------

            1 1/2
-20bf--rb20--b20------------13h15h17p15p13s12h13p12h13h15p13p12----|12------
-------------------13h15h17-------------------------------------15-|---15---


----------------------12------------------12-17p12-10h12h13p12p10----10-----
-13h15p13p12----12-13------------------13-------------------------13----12--
-------------14---------------------14--------------------------------------
---------------------------------14-----------------------------------------
------------------------------15--------------------------------------------
---------------------------17-----------------------------------------------


----------10-12-13-12-10--------------------------|-------------------------
-10-12-13----------------13-12-10-----------------|-------------------------
----------------------------------12-10-9---------|------9h10p9s7-----------
------------------------------------------12-10-9h|10h12----------10-9-7----
--------------------------------------------------|----------------------10-
--------------------------------------------------|-------------------------


-------------------------------------------|-----------------15h17p15p13s12-
-------------------------------------------|--------13h15h17----------------
------------------------------------7-9-10-|-10-9~--------------------------
-----------------------------7-9-10--------|--------------------------------
-8-7------------------7-8-10---------------|--------------------------------
-----10-8-7s5--7-8-10----------------------|--------------------------------


-15bf--15bf-------------------|---------------------------------------------
------------------------------|---------------------------------------------
------------------------------|---------------------------------------------
--------------8-7-5-----------|----------12-------12-14-12----------12-14-15
--------------------8-7-5-----|-12-14-15----14-15----------15-14-15---------
--------------------------8-7-|---------------------------------------------


-------------------------------------------------------|-------------------|
-------------------------------------------------------|-------------------|
-------12-14-12----------12-14bf-rb14------------------|-------------------|
-14-15----------15-14-15--------------8--7-5-----------|-------------------|
---------------------------------------------8-7-5-----|-------------------|
---------------------------------------------------8-7-|-5-----------------|


|-----------------------------|--------------------------------------------|
|-----------------------------|--------------------------------------------|
|-----------------------------|--------------------------------------------|
|--8-7-5-----------5----------|-8-7-5--------------------------------------|
|--------8-7-5-7-8---8-7-5-0--|-------8-7-5-7-8-7-5------------------------|
|-----------------------------|---------------------8-7-5------------------|


|----------------------------0---------------------------|------------------
|--------------------------0---0-------------------------|------------------
|--------------------------------------------------------|------------------
|-------------9s------------------3--2--0----------------|------------9s----
|-2-----------7s---3--2--------------------3--2--0-------|------------7s----
|-0----0--0-----------------------------------------3--2-|-0----0--0--------
|                                                        |                  
|                                                        |                  
|--------------------------------------------------------|------------------
|-------------5------------------------------------------|------------------
|-----------------------4---------5~---------------------|------------------
|--------------------------------------------------------|------------------
|--------------------------------------------------------|------------------
|--------------------------------------------------------|------------------


|--------------------------------|------------------------------------------
|--------------------------------|------------------------------------------
|----------4--5~----------4dive--|-----------------------4------------------
|----3--5------------------------|---------9-5-7-5-4-5-7---5-7-5-4-------4--
|-s7-----------------------------|---------7-----------------------7-5-7----
|--------------------------------|0--0--0-----------------------------------
|                                |
|                                |
|-----<12>-----<7><5><5>bf<5>----|------------------------------------------
|<12>------<7>-------------------|------------------------------------------
|--------------------------------|------------------------------------------
|--------------------------------|------------------------------------------
|--------------------------------|------------------------------------------
|--------------------------------|------------------------------------------


|--------------|
|--------------|
|-----<5>~-----|
|-5-7----------|
|--------------|
|--------------|
|              |
|              |
|--------------|
|--------------|
|--------------|
|--------------|
|--------------|
|--------------|


|-----------------------------------------------|-------------|-------------|
|-----------------------------------------------|-------------|---<5>-------|
|-2------4------2------4------7-7p5p4---5-4-----|-4~----------|------<5>----|
|---2------2------2------2------------7-----7-5-|-----s7----5-|4s5------<5>~|
|-----2------3------3------3--------------------|-------------|-------------|
|-----------------------------------------------|-------------|-------------|


|------------------------------------------------------|--------------------
|------------------------------------------------------|--------------------
|-2------4------2------4------5--7p5p4---4-------------|-4~---7~----12------
|---2------2------2------2-------------7---7--4--5--7--|--------------------
|-----2------3------3------3---------------------------|--------------------
|------------------------------------------------------|--------------------


--------------------------|-------------------------------------------------
-----------17s19s20-------|-------------------------------------------------
-s14--s16-----------------|-2------4------2------4--------4s5s4---4-7-5s7s5-
--------------------------|---2------2------2-------4h5h7-------7-----------
--------------------------|-----2------3------3-----------------------------
---------------------19s--|-------------------------------------------------


-----|---------------------------------12---8---------------8---10----------
-----|-5----------------------10h12h13--------12-10-8-10-12--------13-12-10-
-s4--|---4------------9h11h12-----------------------------------------------
-----|-----5--9h10h12-------------------------------------------------------
-----|----------------------------------------------------------------------
-----|----------------------------------------------------------------------
     |
     |
-----|-----------------------------------19-12----------------12--14--------
-----|--------------------------17h19h20-------15-13-12-13-15--------17-15-13
-----|-4---------------16h17h19---------------------------------------------
-----|---5----16h17h19------------------------------------------------------
-----|-----7----------------------------------------------------------------
-----|----------------------------------------------------------------------


|---------|-10---12----------------12---14----------------14---15-----------
|-12-13---|---------15-13-12-13-15---------17-15-13-15-17---------19-17-15--
|---------|-----------------------------------------------------------------
|---------|-----------------------------------------------------------------
|---------|-----------------------------------------------------------------
|---------|-----------------------------------------------------------------
|         |
|         |
|---------|-14---15----------------15---17----------------17---19-----------
|-15-17---|---------19-17-15-17-19---------20-19-17-19-20---------22-20-19--
|---------|-----------------------------------------------------------------
|---------|-----------------------------------------------------------------
|---------|-----------------------------------------------------------------
|---------|-----------------------------------------------------------------


|-------15---------15-17-19-17--|-15----------------------------------------
|-17-19------17-19--------------|----19-17-15-------------------------------
|-------------------------------|-------------17-16-14----------------14-16-
|-------------------------------|----------------------17-16-14-16-17-------
|-------------------------------|-------------------------------------------
|-------------------------------|-------------------------------------------
|                               |
|                               |
|-------19---------19-20-22-20--|-19----------------------------------------
|-20-22------20-22--------------|----22-20-19-------------------------------
|-------------------------------|-------------21-19-17----------------17-19-
|-------------------------------|----------------------21-19-17-19-21-------
|-------------------------------|-------------------------------------------
|-------------------------------|-------------------------------------------


|-------------------------------|----------------------|-------------------|
|-------------------------------|----------------------|-------------------|
|-17-16-14----------------------|----------------------|-------------------|
|----------17-16-14-------------|----------------------|----2--------------|
|-------------------17-15-14----|----------------------|----2--------------|
|----------------------------17-|-15-14s12-------------|----0--------------|
|                               |                      |                   |
|                               |                      |                   |
|-------------------------------|----------------------|-------------------|
|-------------------------------|----------------------|-------------------|
|-21-19-17----------------------|----------------------|-------------------|
|----------21-19-17-------------|----------------------|----2--------------|
|-------------------21-19-17----|----------------------|----2--------------|
|----------------------------20-|-19-17s15-------------|----0--------------|





Comments


Popular Racer X tabs & chords
Frenzy Bass Tabs
Into The Night Bass Tabs
Motorman Bass Tabs
Fire Of Rock Drum Tabs
B R O Tabs
Bolt In My Heart Tabs
Hammer Away Tabs
Scarified 1 Tabs
Technical Difficulties 2 Tabs
Viking Kong Tabs


Song lyrics



↑ Back to top | Tablatures and chords are parodies/interpretations of the original songs. You may use it for private study, scholarship, research or language learning purposes only
© 2014 AZChords.com Contact us | Privacy policy | DMCA | Add/correct tabs | Request tabs | Top 50 tabs