» » »

Quiet Riot, Metal Health Tabs (ver.3)

Artists:  A B C D E F G H I J K L M N O P Q R S T U V W X Y Z # 

Metal Health Tabs (ver.3)

Quiet Riot Tabs
Rating:
4/5 (14 votes)
Metal Health lessons Tabs too difficult? Try these video lessons and learn fast
                Metal Health
Quiet Riot

This is my first tab, so bear with me.  i'm not very good at tabbing so here it is:

Intro
E--------------------------------------------------------------|
A--------------------------------------------------------------|
D--2-----5---------------5----2----5----2----------------------|
G--2-----5---5----5------5----2----5----2----------------------|
B--0-----3---5----5------3----0----3----0----------------------|
E------------3----3--------------------------------------------|

E--------------------------------------------------------------|
A--------------------------------------------------------------|
D--2-----5---------------5----2----5----2----------------------|
G--2-----5---5----5------5----2----5----2----------------------|
B--0-----3---5----5------3----0----3----0----------------------|
E------------3----3-------------------------------0---3--------|

E--------------------------------------------------------------|
A----------------------------------------------------0---3-----|
D--2-----5---------------5----2----5----2------------0---2-----|
G--2-----5---5----5------5----2----5----2----------------------|
B--0-----3---5----5------3----0----3----0----------------------|
E------------3----3--------------------------------------------|

E--------------------------------------------------------------|
A----------------------------------------------------0---0-----|
D--2-----5---------------5----2----5----2------------0---0-----|
G--2-----5---5----5------5----2----5----2----------------------|
B--0-----3---5----5------3----0----3----0----------------------|
E------------3----3--------------------------------------------|

E------------|
A------------|
D----2-------| Let Ring
G----2-------|
B----0-------|
E------------|

Verse 1 and 2
E-----------------------------------------------------|
A-----------------------------------------------------|
D-----2---------4----------5-----------4--------------| 2 times
G-----2---------4----------5-----------4--------------|
B-----2---------4----------5-----------4--------------|
E-----------------------------------------------------|

E-------------------|
A-----------0--0----|
D-----------0--0----| At the last 444 on the second time, play this
G---12/1------------|
B---12/1------------|
E-------------------|

E-------------------------------------------------------------------|
A-------------------------------------------------------------------|
D--2---------------4---------------5-------------4-------------0--0-|
G--2---------------4---------------5-------------4-------------0--0-|
B--0--0-0-0-0-0-0----0-0-0-0-0-0-----0-0-0-0-0-0---0-0-0-0-0--------|
E-------------------------------------------------------------------|

Pre Chorus:

E-----------------------------------------------------------------|
A-----------------------------------------------------------------|Listen for
D-----2--------4--------5---------7-----7-----7-----5-----5---2---|Correct
G-----2--------4--------5---------7-----7-----7-----5-----5---2---|Timing
B-----0--------0--------3---------5-----5-----5-----3-----3---0---|
E-----------------------------------------------------------------|

Chorus:

E--------------------------------------------------------------|
A----------------------------------------------------0---3-----|
D--2-----5---------------5----2----5----2------------0---2-----|
G--2-----5---5----5------5----2----5----2----------------------|
B--0-----3---5----5------3----0----3----0----------------------|
E------------3----3--------------------------------------------|

E-----------------------------------------|-------------------------|
A-----------------------------------------|---------0---0-----------|
D--2-----5---------------5----2----5------|--2------0---0-----------|
G--2-----5---5----5------5----2----5------|--2---------------- <----|
B--0-----3---5----5------3----0----3------|--0----------------------|
E------------3----3-----------------------|-------------------------|
After Second chorus, play this instead of the part above this

E--------------------|
A--------------------|
D---2----------------| then after this, it goes to the bridge
G---2----------------|
B---0----------------|
E----------0-3-------|

E------------|
A------------|
D----2-------| Let Ring
G----2-------|
B----0-------|
E------------|

Fill thingy

E----20--------------------------------------------|
A--------17---20-----------------------------------|
D------------------17-----19-----------------------|
G-----------------------------17---17--------------|
B--------------------------------------17-15--17---|
E--------------------------------------------------|


Back to verse

Bridge:

E-------------------------------------------------|
A-------------------------------------------------|
D-----------------5----------------------5--------|
G-----7-----------5------5---------------5--------|
B-----7-------0---3------5------------0--3--------|
E-----5------------------3------------------------|

E-------------------------------------------------|
A-------------------------------------------------|
D-----------------5---------------------2---------|
G-----7-----------5------5--------------2---------|
B-----7-------0---3------5--------------0---------|
E-----5------------------3------------------------|


Solo (YOUR ON YOUR OWN!!!!!!)

Interlude:

E--------------------------------------------------------------|
A----------------------------------------------------0---3-----|
D--2-----5---------------5----2----5----2------------0---2-----|
G--2-----5---5----5------5----2----5----2----------------------|
B--0-----3---5----5------3----0----3----0----------------------|
E------------3----3--------------------------------------------|

E--------------------------------------------------------------|
A--------------------------------------------------------------|
D--2-----5---------------5----2----5----2----------------------|
G--2-----5---5----5------5----2----5----2----------------------|
B--0-----3---5----5------3----0----3----0----------------------|
E------------3----3--------------------------------------------|

Bass stuff

I can't figure out all the little fills and that kinda thing so yea...

Outro Chorus:

E--------------------------------------------------------------|
A----------------------------------------------------0---3-----|
D--2-----5---------------5----2----5----2------------0---2-----|
G--2-----5---5----5------5----2----5----2----------------------|
B--0-----3---5----5------3----0----3----0----------------------|
E------------3----3--------------------------------------------|

E--------------------------------------------------------------|
A----------------------------------------------------0---0-----|
D--2-----5---------------5----2----5----2------------0---0-----|
G--2-----5---5----5------5----2----5----2----------------------|
B--0-----3---5----5------3----0----3----0----------------------|
E------------3----3--------------------------------------------|

E--------------------------------------------------------------|
A----------------------------------------------------0---3-----|
D--2-----5---------------5----2----5----2------------0---2-----|
G--2-----5---5----5------5----2----5----2----------------------|
B--0-----3---5----5------3----0----3----0----------------------|
E------------3----3--------------------------------------------|

E--------------------------------------------------------------|
A----------------------------------------------------0---0-----|
D--2-----5---------------5----2----5----2------------0---0-----|
G--2-----5---5----5------5----2----5----2----------------------|
B--0-----3---5----5------3----0----3----0----------------------|
E------------3----3--------------------------------------------|


Outro Chorus over the solo

E--------------------------------------------------------------|
A----------------------------------------------------0---3-----|
D--2-----5---------------5----2----5----2------------0---2-----|
G--2-----5---5----5------5----2----5----2----------------------|
B--0-----3---5----5------3----0----3----0----------------------|
E------------3----3--------------------------------------------|

E--------------------------------------------------------------|
A--------------------------------------------------------------|
D--2-----5---------------5----2----5----2----------------------|
G--2-----5---5----5------5----2----5----2----------------------|
B--0-----3---5----5------3----0----3----0----------------------|
E------------3----3--------------------------------------------|

Play this ^ slower


I'll try and figure out all the little difficult stuff. this tab is pretty easy.
            
Submit corrections

comments powered by Disqus
↑ Back to top | Quiet Riot Tabs for Metal Health. Lyrics for acoustic guitar and electric guitar. Tablatures and chords are parodies/interpretations of the original songs. You may use it for private study, scholarship, research or language learning purposes only