» » »

Let's Get Crazy Tabs (ver.1)

Artists:  A B C D E F G H I J K L M N O P Q R S T U V W X Y Z # 

Let's Get Crazy Tabs (ver.1)

Quiet Riot
Rating:
0/5 (0 votes)

Hard to play? Try these video lessons and learn fast.
                heres the song lets get carazy by quiet riot because the one up already is for
bass heres how to do it on guitar

e------------------------------|
b------------------------------|
g---2--5--7--4/5---------------|
d---2--5--7--4/5---------------|
a---0--3--5--2/3---------------|
e------------------------------|
WHOOOOOOOOAAAAAAAAAAAA!!!!!
e--------------------------------|
b--------------------------------|
g---2--5--7--4/5-----------------|
d---2--5--7--4/5--5--4-----------|
a---0--3--5--2/3--5--4-----------|
e-----------------3--2-----------|

e--------------------------------|
b--------------------------------|
g-------------2------------------|
d-5-----4-----2------------------|
a-5-----4-----0------------------|
e-3-----2------------------------|


looking for some action want a mean machine

e----------------------------|
b----------------------------|
g-2--5--7--5--7--5--2--------|
d-2--5--7--5--7--5--2--------|
a-0--3--5--3--5--3--0--------|
e----------------------------|

and those are the riffs used throughout the song hope you enjoy
            
Hard to play? Try these video lessons and learn fast. | Correct




comments powered by Disqus
↑ Back to top | Tablatures and chords are parodies/interpretations of the original songs. You may use it for private study, scholarship, research or language learning purposes only