>
 >
Take A Drink

Take A Drink Guitar Tabs

Quietdrive - Take A Drink chords, tabs, tablatures, lyrics

Guitar lessons | Add/correct | Request | Top 50 tabs Artists:  A B C D E F G H I J K L M N O P Q R S T U V W X Y Z 0-9

Take A Drink Guitar Tabs – Quietdrive

CD, Sheet music, Poster

Do you like Take A Drink? Share with your friends now
ChordsTabsTabs v2Ukulele

(You have to play two different F's in this song, so I labeled them High F {Fh} and Low
{Fl}.  Also, you can play two different C's.  Play whatever feels easier.)
Here are the chords that you'll use:

  Fh | C/E |    C     | D | A#| A | G | Fl|
|----|-----|----------|---|---|---|---|---|
|----|-----|----------|---|---|---|---|---|
|-10-|--9--|-------5--|-7-|---|---|---|---|
|-10-|--10-|-10----5--|-7-|-8-|-7-|-5-|-3-|
|-8--|--7--|-10 or 3--|-5-|-8-|-7-|-5-|-3-|
|----|-----|-8--------|---|-6-|-5-|-3-|-1-|


Verse: (palm muted)

Fh            C/E            D
I never wanna be part of the herd
                  C                A#
I guess I was in case you haven't heard
               A                 G
Maybe you can tell that I can't stand
                  C            Fh
The way I want to be the included


then in the background comes the second guitar:
  Fh      C/E      D      C      A#      A       C
|----------------------------------------------------------------|
|----------------------------------------------------------------|
|-----5-------5-------5-------5-------5-------5-------5-------5--|
|-3-3---3-2-3---3-0-3---3---3---3---3---3---3---3---3---3---3---3|
|-------------------------3-------1---------------3-------3------|
|-----------------------------------------3----------------------|

Fh             C/E       D
I always wanna be a mystery
                    C                 A#
I always knew that two and two made three
                 A              G
I wish away the time I'm living in
               C            D
I never wanna see a smile again


Pre-chorus: (Play each chord once with a NASTAY Wah pedal)
D                 A#
But its not for sure, and I'm feeling
D                 A#                C                Fl
like its not for sure, come on and take a drink with me


Chorus:
Fl     C      G    A                   A#
  Woah!  Woah!  I don't think you can cope with it
  C                     Fl
I don't think you can handle it
     C     G
Woah! Woah!
   A           A#                C                Fh
forgive my un-forgetfulness--and take a drink with me...


Verse 2: (palm muted)
The chords are played over
|-------------|         |----------------------|
|-----6----6--|         |----------------------|
|--5~---5~----| x4 then |-5~-3--5~-2-5~-2-5~-3-|
|-------------|         |----------------------|
|-------------|         |----------------------|
|-------------|         |----------------------|


I wanted to be two but more than one
I only thought that I could be so dumb
Crush my heart with your new heels
I'd beg for you but I don't kneel
I understand that you were living there
It never bothered me that I don't care
I wonder if I'll act on my impulse
I wonder if I'll leave if you say no


Pre-Chorus: (same rule as before)

D                A#
But its not for sure, and I'm feeling
D                 A#                C                Fl
like its not for sure, come on and take a drink with me


Chorus:

Fl     C      G    A                   A#
  Woah!  Woah!  I don't think you can cope with it
   C                    Fl
I don't think you can handle it
Fl     C      G     A           A#                C
  Woah!  Woah!  Forgive my un-forgetfulness--and take a drink with me.

Third verse:
(Lead guitar)Fl       A    A#    A
           |---------------------------|
(second    |---------------------------|
guitar)    |-5------------5----------5-|
           |--3-3-3-3-2-3---3~-3-2-3--3|
           |---------------------------|
           |---------------------------|


Then lead guitar plays the Fl, A, A#, Fl chords palm muted while second guitar plays:

|--------|
|--------|
|-5----5-|
|--3323-3|
|--------|
|--------|

[Pre-chorus]


[Chorus]





Comments


Popular Quietdrive tabs & chords
Always Chords
Birthday 2 Chords
Motivation 1 Chords
Daddy's Little Girl Tabs
Daddy's Little Girl 1 Tabs
Do You Know Tabs
Rush Together Tabs
Time After Time Intro Tabs
Always Ukulele
Rise From The Ashes 2 Ukulele


Song lyrics



↑ Back to top | Tablatures and chords are parodies/interpretations of the original songs. You may use it for private study, scholarship, research or language learning purposes only
© 2014 AZChords.com Contact us | Privacy policy | DMCA | Add/correct tabs | Request tabs | Top 50 tabs