>
 >
Speak 1

Speak 1 Guitar Tabs

Queensryche - Speak 1 chords, tabs, tablatures, lyrics

Guitar lessons | Add/correct | Request | Top 50 tabs Artists:  A B C D E F G H I J K L M N O P Q R S T U V W X Y Z 0-9

Speak 1 Guitar Tabs – Queensryche

CD, Sheet music, Poster

Do you like Speak 1? Share with your friends now
TabsTabs v2


the Whip himself . . .for clues on figuring out the opening riff and rhythm parts.
 "Make your hand like a spider . . .."

------------------------------------------------------------------------------|
------------------------------------------------------------------------------|
-------16----------16---------16----------16--------16------------16----------|
-0--14------0--14------0--14-------0--14------0--14-----0--0--14------0--14---|
------------------------------------------------------------------------------|
------------------------------------------------------------------------------|
 intro riff

------------------------------------------------------------------------------|
------------------------------------------------------------------------------|
-16---------16----------14---------14-------------16---------16---------16----|
-----0--14-------0--12------0--12------0--0---14------0--14------0--14--------|
------------------------------------------------------------------------------|
------------------------------------------------------------------------------|


------------------------------------------------------------------------------|
------------------------------------------------------------------------------|
--------16---------16-----------12---------12---------14---------17-----------|
-0--14------0--14------0-0--10------0--10------0--12------0--14------0--14----|
------------------------------------------------------------------------------|
------------------------------------------------------------------------------|


------------------------------------------------------------------------------|
------------------------------------------------------------------------------|
-16----------16---------16---------16---------16--------16-----------16-------|
-----0-0-14------0--14------0--14------0--14-----0--14-----0--0--14------0----|
------------------------------------------------------------------------------|
------------------------------------------------------------------------------|


------------------------------------------------------------------------------|
------------------------------------------------------------------------------|
-----16--------16---------14--------14--------------16---------14-------------|
-14------0--14-----0--12------0--12-------0--0--14------0--12--------0--10----|
------------------------------------------------------------------------------|
------------------------------------------------------------------------------|


------------------------------------------------------------------------------|
------------------------------------------------------------------------------|
-12--------10--------9--------7-------5--------4v-----------------------------|
-----0--9------0--7-----0--5----0--4-----0--2---------------------------------|
------------------------------------------------------------------------------|
------------------------------------------------------------------------------|


----------------------------------------------|-------------------------------|
----------------------------------------------|-------------------------------|
----------------------------------------------|-------------------------------|
----------------------------------------------|-------------------------------|
----5--7--------7---------5--7--------5-------|-------------------------------|
-0--------0--8----0--0--0-------0--7-----0--0-|-------------------------------|
 main riff/verse riff. Palm mute it, duh          these are the verse fills:

------------------------------------------------------------------------------|
------------------------------------------------------------------------------|
------------------------------------------------------------------------------|
------------------------------------------------------------------------------|
---5-7------7----7-----------------7------------------------------------------|
-0-----0--8---00-8-----------------5------------------------------------------|
 religion is to blame   ...with a gun       then, the chorus

----------------------------|------------------------------------------------|
----------------------------|----------------------------------------------*-|
----------------------------|------------------------------------------------|
-2----4----2-----4----5---4-|--------------------------------------------2---|
-3----5----3-----5----5---5-|----5----5----7----------5---5---5---7---9--2-*-|
----------------------------|----7----5----8----------5---7---5---8---7--0---|
 SPEAK TO ME!!!!!!!!!!!!!!     Speak the world . . . the word is all of us

------------------------------------------------------------------------------|
------------------------------------------------------------------------------|
--5------4-----5-----7--------5-----4------4---4------5-----4-----7---7---7---|
--2------2-----2-----4--------2-----2------2---2------2-----2-----4---5---7---|
------0-----0-----0--------------0-----3---3---0---------0-----0--------------|
------------------------------------------------------------------------------|
 Bridge "Seven years of power"

------------------------------------------------------------------------------|
------------------------------------------------------------------------------|
-5----4-----5----5--5----5---4------------------------------------------------|
-2----2-----5----5--5--------4------------------------------------------------|
-0----0-----3----3--3--------2------------------------------------------------|
------------------------------------------------------------------------------|


------------------------------------------------------------------------------|
------------------------------------------------------------15b17----15-13----|
--------16---------17---------16--------17--------16--------------------------|
-0--14------0--14------0--14-----0--14-----0--14------0--14-------------------|
------------------------------------------------------------------------------|
------------------------------------------------------------------------------|
 Yey!! Another Guitar Solo

------------------------------------------------------------------------------|
-15b17vr15--15-13-12-13-12----12----------------------------------------------|
---------------------------14----14-12-14-11-12-11-12-11----11----------------|
---------------------------------------------------------14----14-12-10---9---|
------------------------------------------------------------------------------|
------------------------------------------------------------------------------|


------------------------------------------------------------------------------|
---------------------------------------------------------12--------10---------|
----------------------------------^9\------/-------0--9------0--9------0--9---|
---------10------10--12--10--12------\----/-----------------------------------|
-10--12------12-----------------------\--/------------------------------------|
---------------------------------------\/-------------------------------------|
                                 I'll have a natural harmonic with whammy.

------------------------------------------------------------------------------|
-12--------10--------12-------14----------15----------17----20b22r20v---------|
-----0--9------0--9-------12------12--12------12--12--------------------------|
------------------------------------------------------------------------------|
------------------------------------------------------------------------------|
------------------------------------------------------------------------------|


-----17-20-17----17-----------------------------------------------------------|
-20-----------20----20-17-20----17----17-20-17----17--------------------------|
-----------------------------19----19----------19----19-17-19-17----17----17--|
-----------------------------------------------------------------19----19-----|
------------------------------------------------------------------------------|
------------------------------------------------------------------------------|


------------------------------------------------------------------------------|
----------------------17*18*17*18*-15-17-15----15-----------------------------|
-19-19b21r19-17-19--------------------------17----17-16-17-14-16-14-12-14-----|
------------------------------------------------------------------------------|
------------------------------------------------------------------------------|
------------------------------------------------------------------------------|


-------------------------------------------------------------17------15-------|
---------------------------------------------15------14-0-14----0-14----0-14--|
-14b16r14-12-11-12-11-------------------0-12----0-12--------------------------|
-----------------------------12------11---------------------------------------|
------------------------0-10----0-10------------------------------------------|
------------------------------------------------------------------------------|


-17------17-b19v--------------------------------------------------------------|
----0-14----------------------------------------------------------------------|
------------------------------------------------------------------------------|
------------------------------------------------------------------------------|
------------------------------------------------------------------------------|
------------------------------------------------------------------------------|

h  - hammer on
p  - pull off
* - trill
b  - bend (use tremolo bar for downbend)
r  - release bend
/  - slide up
\  - slide down
v  - vibrato
t  - tap (with strumming hand)
x  - fret-hand muting
^ -  natural harmonics
ph- artificial (pinch) harmonics
PM palm mute
                    -\----------/-----------------------------|
Lines going diagonally up and down   --\--------/-------------|
These mean whammy bar                     --\------/----------|
          -                                    --\----/-------|
\ - bar down
/- bar up





Comments


Popular Queensryche tabs & chords
The Mission Bass Tabs
Anarchy-x 1 Tabs
Empire Tabs
I Will Remember 1 Tabs
Nightrider Tabs
Silent Lucidity 3 Tabs
Spreading The Disease 1 Tabs
The Mission Tabs
Thin Line Intro Tabs
Two Miles High Tabs


Song lyrics



↑ Back to top | Tablatures and chords are parodies/interpretations of the original songs. You may use it for private study, scholarship, research or language learning purposes only
© 2014 AZChords.com Contact us | Privacy policy | DMCA | Add/correct tabs | Request tabs | Top 50 tabs