» » »

Queensryche, Silent Lucidity Tabs (ver.1)

Artists:  A B C D E F G H I J K L M N O P Q R S T U V W X Y Z # 

Silent Lucidity Tabs (ver.1)

Queensryche Tabs
Rating:
0/5 (0 votes)
Silent Lucidity lessons Tabs too difficult? Try these video lessons and learn fast
                This is my first attempt at tab, so give me a little freedom
here...

**************************************************************
Rhythm Figures:

Rhy Fig 1:
---7-----7-----5-----5-----5|
-----0-----0-----0-----0----|
----------------------------|
-5-----5-----5-----5-----5--|
----------------------------|
----------------------------|
Isn't this played as:

---7-----7-----5-----5-----5|
-----0-----0-----0-----0----|
-0-----0-----0-----0-----0--|
----------------------------|
----------------------------|
----------------------------|

and similarly for Rhy.Fig.1a. This is the way I play it and seems a little
easier. (Thanks for the rest of the post!)
            
Submit corrections

comments powered by Disqus
↑ Back to top | Queensryche Tabs for Silent Lucidity. Lyrics for acoustic guitar and electric guitar. Tablatures and chords are parodies/interpretations of the original songs. You may use it for private study, scholarship, research or language learning purposes only