» » »

Queensryche, Sign Of The Times Bass tabs (ver.1)

Artists:  A B C D E F G H I J K L M N O P Q R S T U V W X Y Z # 

Sign Of The Times Bass tabs (ver.1)

Queensryche Tabs
 Rating:
4/5 (4 votes)
Sign Of The Times lessons Tabs too difficult? Try these video lessons and learn fast
                Queensryche - Sign of the Times
The Music Shop BBS (619)423-4970


Tune Down 1/2 Step

Intro
-----------------3--3--3--3------------------------------
-----------------3--3--3--3----------6-----6-------------
--2--2--2--------0--0--0--0----------5-----5-------------
--2--2--2----------------------------3-----3\2-----------
--0--0--0--------3--3--3--3------------------------------
-----------3--0--------------3----0-----0---------------- 


---------------------------------------------------------
---------------------------------------------------------
-2--2-2--2---2--2--2--2---2--2--2--2---------------------
-2--2-2--2---2--2--2--2---2--2--2--2---------------------
-0--0-0--0---0--0--0--0---0--0--0--0---------------------
--------------------------------------------------------- 


Continue with A and 2nd guitar plays below

---------------------------------------------------------
----------------8b(10)----8~~~-------(8)\2---------------
--6b(7)--6-----------------------------------------------
------------5--------------------------------------------
---------------------------------------------------------
--------------------------------------------------------- 

1st & 2nd Verse
---------------------------------------------------------
------------------8b(10)----------8~------\2-------------
----6b(7)--6---------------------------------------------
--------------5------------------------------------------
---------------------------------------------------------
--------------------------------------------------------- 


---------------------------------------------------------
---------------------------------------------------------
-2--2--2--2----2----2--2--2--2---------------------------
-2--2--2--2----2----2--2--2--2---------------------------
-0--0--0--0----0----0--0--0--0---0-----------------------
------------------------------------3-------------------- 


-----3--3--3--3-----3--3--3--3-----3--3------------------
-----3--3--3--3-----3--3--3--3-----3--3--------1--1--1--1
-----0--0--0--0-----0--0--0--0-----0--0--------0--0--0--0
-----0--0--0--0-----0--0--0--0-----0--0--------0--0--0--0
---------------------------------------------------------
--3--------------3--------------3-----------1------------ 

                               5x========
---------------------------------------------------------
-------1-------------------------------------------------
-------0---2---2p0---2--0------2--2--2--2----------------
-------0-----------------------2--2--2--2----------------
-------------------------------0--0--0--0----------------
-3--1------------------------------------------3--------- 


2nd Verse (Play 1st Verse rhythm)


Bridge
----8---------8------8--------------10----10-------------
----8------8---------8----------10--10----10------0------
---10--10--------10------10/12--12------------12---------
---10--------------------10/12----------------12---------
----8----------------------------------------------------
--------------------------------------------------------- 


------------0----------0---0---0--0-------0--0---------5-
---8-----------8----8----------0----------0--0------6----
---9-----------7-----------5---5------4----------5-------
--10---10------9-----------7---7------5------------------
--------------------------------------5------------------
--------------------------------------------------------- 


-------------7-------------------------------------------
--6-------8-----8---8------------------------------------
-----5/7-------------------------------------------------
---------------------------------------------------------
---------------------------------------------------------
--------------------------------------------------------- 


|--------------------------------------------------------
|-6-----------8----5--5------/6----/8----\---------------
|-----6/7--7---------------------------------------------
|--------------------------------------------------------
|--------------------------------------------------------
|-------------------------------------------------------- 
|
|
|-------------------------9--------------------------10--
|---------------10------------------8----------------10--
|------9-------------------------10---------10/12----12-12
|-----------------------------10--------10--10/12--------
|--0--------0--------0----------------8--8--------10-----
|-------------------------------------------------------- 


|--/8-------7\5-5----/8*---------------------------------
|--------------------------8\6----/9-9--9--9\------------
|--------------------------------------------------------
|--------------------------------------------------------
|--------------------------------------------------------
|-------------------------------------------------------- 
|
|
|--------0---------0--0--0--0------0---5--5--5--8--8-8-8-
|--8--------8---8------------------0---6--6--6--9--9-9-9-
|--9--------7---------5--5-----4-------5--5--5--8--8-8-8-
|-10-10-----9---------7--7-----4-------------------------
|------------------------------5-------------------------
|-------------------------------------------------------- 



Guitar Solo

-18b(20)-18--18~--15-17p15----15-------------------------
---------------------------18----18--18b(20)-rb18--18b(20)
---------------------------------------------------------
---------------------------------------------------------
---------------------------------------------------------
--------------------------------------------------------- 


---------------------------------------------------------
-18----------16p15----15---------------------------------
------15~----------17----17-15------------------15~------
-------------------------------17~--15----15-17----------
---------------------------------------17----------------
--------------------------------------------------------- 


---------------------------------------------------------
-16p15--16p15--16p15----------------16p15-----16p15-16-18
----------------------15b(16)-rb15---------15------------
---------------------------------------------------------
---------------------------------------------------------
--------------------------------------------------------- 


-----------------------------15---18b(20)-18~--18b(20)---
-18b(20)--18b(20)~~~~--rb18------------------------------
---------------------------------------------------------
---------------------------------------------------------
---------------------------------------------------------
--------------------------------------------------------- 


-18b(20)-18----------------------------------------------
-------------16~--15~------------------------------------
----------------------------15b(17)--15~--14~------------
------------------------17---------------------17\15-----
---------------------------------------------------------
--------------------------------------------------------- 

  4x=========
---------------------------------------------------------
---------------------------------------------------------
---------------------------------------------------------
-15b(17)-rb15------15\-----------------------------------end lead
---------------------------------------------------------
--------------------------------------------------------- 


---------------------------------------------------------
-------------------8b(10)---8~---\2----------------------
------6b(7)--6-------------------------------------------
--/5------------5----------------------------------------
---------------------------------------------------------
--------------------------------------------------------- 


---------------------------------------------------------
-------12--------/13---12----\---------------------------
--/12-------12\------------------------------------------
---------------------------------------------------------
---------------------------------------------------------
--------------------------------------------------------- 


---------------------------------------------------------
---------------------------------------------------------
--4b(5)---4----------------------------------------------
---------------3~~~--------------------------------------
---------------------------------------------------------
--------------------------------------------------------- 

Chorus

---------------------------------------------------------
---------------------------------------------------------
-12\0/5--5\4--0--12\0/5---0--12\0/4---0--12\0/2----------
---------------------------------------------------------
---------------------------------------------------------
--------------------------------------------------------- 


--------/5-----------------------------------------------
---------------------------------------------------------
--3\2--------2-------------------------------------------
---------------------------------------------------------
---------------------------------------------------------
--------------------------------------------------------- 

Bridge (w/Ad Lib)


End
---------------------------------------------------------
-------------------------------------13------------------
----------------------------------12----14~--------------
-------------------------12-14-15------------------------
---12--14---14-14-14--15---------------------------------
--------------------------------------------------------- 


----------------------------19--22--21-----19~---21------
----------------15----15-20-------------22-----------22--
-------------14----16------------------------------------
-12-14-15-17---------------------------------------------
---------------------------------------------------------
--------------------------------------------------------- 


-19\15---------------------------------------------------
-------17-15---fade out----------------------------------
---------------------------------------------------------
---------------------------------------------------------
---------------------------------------------------------
--------------------------------------------------------- 


The Music Shop BBS (619)423-4970  (San Diego, CA  USA)
Over 10,000 Guitar Tabs, pictures, construction docs, lessons,
interviews, sound files, lyrics, programs.
lyrics, pictures gig info, demo info sound files etc.,

download mansi.zip for monthly ansi art/music packs.
h = hammeron                          ps = pick scr*pe
p = pulloff                           % = repeat phrase
b = bend                              + natural harmonic
/\ = Slide
* = Artificial Harmonic
x = ghost note
tr = trill
^Z

The Music Shop BBS (619)423-4970  Over 10,000 guitar/bass
tab.  3.7Gigs of music files 4cdroms online, 24/7 access

download MANSI.ZIP for montly ansi/tab releases.
            
Submit corrections

comments powered by Disqus
↑ Back to top | Queensryche Bass for Sign Of The Times. Lyrics for acoustic guitar and electric guitar. Tablatures and chords are parodies/interpretations of the original songs. You may use it for private study, scholarship, research or language learning purposes only