>
 >
I Don't Believe In Love

I Don't Believe In Love Guitar Tabs

Queensryche - I Don't Believe In Love chords, tabs, tablatures, lyrics

Guitar lessons | Add/correct | Request | Top 50 tabs Artists:  A B C D E F G H I J K L M N O P Q R S T U V W X Y Z 0-9

I Don't Believe In Love Guitar Tabs – Queensryche

CD, Sheet music, Poster

Do you like I Don't Believe In Love? Share with your friends now
TabsTabs v2
-------------------------------------------------------------------------------
                                     I DONT BELIEVE IN LOVE- Queensryche
-------------------------------------------------------------------------------


Intro:
E|-3/5-5---3---1---6---3/5-5---3---1---0-1-0-1-|
B|-1/3---3---3---3-----1/3---3---3---3-1-1-1-1-|
G|-------------------------------------------3-|
D|---------------------------------------------|
A|---------------------------------------------|
E|---------------------------------------------|
For the rhythm guitar you could do a D5 repeatidly and end on a C5 than Bb5.

Verse:
Guitar 1:
E|-0------1------3------0-------------5--------3--------3--------1--|
B|-3------3------6------5-----------3--------1--------3--------1----|
D|-2------3------5------3---------2--------2--------5--------3------|
G|-0------0------0------0-------0--------0--------0--------0--------|
A|------------------------------------------------------------------|
E|------------------------------------------------------------------|
Guitar 2:
E|-0----------0------1---------1------3---------3------0--------0-----|
B|-3----3-------3----3----3------3----6----6------6----5----5-----5---|
G|-2-------2------2--3-------3-----3--5------5------5--3------3-----3-|
D|-0--0--------------0--0-------------0--0-------------0--0-----------|
A|--------------------------------------------------------------------|
E|--------------------------------------------------------------------|
(In the time it takes to play the first bar the second bar can be played twice. Just 
carefully and you should get it.)
End the Verse with both a D5 pounding in.

Chorus:
The intro is used as the backing over the chorus.
E|--------------------------------|---------|
B|--------------------------------|---------|
G|--------------------------------|---------|
D|-5/7-7-7-7--7-7-7--7-7-7--------|--5---3--|
A|-3/5-5-5-5--5-5-5--5-5-5--etc.--|--3---1--|
E|--------------------------------|---------|
                                 Never have..
E|--------------------------------|----------|
B|--------------------------------|----------|
G|--------------------------------|----------|
D|-5/7-7-7-7--7-7-7--7-7-7--------|--3---5---|
A|-3/5-5-5-5--5-5-5--5-5-5--etc.--|--1---3---|
E|--------------------------------|----------|
                                   feeeeeel..
During the second chorus when it sounds like it skips, bar the 7th fret on the G and D 
and just hit it once quickly.

Guitar Solo:
|-13b15--13b15------11h13p11p10h11p10-8--10--8--6--8b10---8b10v-------------|
|---------------------------------------------------------------------------|
|-------------------------------------------------------------------------9-|
|-----------------------------------------------------------------9-10-12---|
|---------------------------------------------------------------------------|
|---------------------------------------------------------------------------|

|----------------------------------------------------------------13-15-13v----|
|-----------------------10-11-13---------10-11-13-------10-13-15--------------|
|-10-12---------9-10-12----------9-10-12----------9-10------------------------|
|-------9-10-12---------------------------------------------------------------|
|-----------------------------------------------------------------------------|
|-----------------------------------------------------------------------------|

|-----------------------------------------------------------------------------|
|-ph4---4---------------------------------------------------------------------|
|-----\/---ph3--------------2b3-p0--------------------------------------------|
|-----------\--/--ph4-----------------------8--7------------------------------|
|------------\/------\--/--------------8-10-----------------------------6--8--|
|---------------------\/---------------------------8-8--10-10--6--8--10-------|

|----------------------/18----------------------------------------------------|
|---------------------------16v-----15h16p15--13-15-13v--/-11-10-8--6--8------|
|------------7--8--10---------------------------------------------------------|
|---7--8--10------------------------------------------------------------------|
|-10--------------------------------------------------------------------------|

|-------------------------------------------------------/15tr16~~~~~~--|
|-8b10--r8-6-8v--------------------------------------------------------|
|-----------------7--8--10--8--7---------------------------------------|
|---------------------------------10--8--10-p8-p7v---------------------|
|----------------------------------------------------------------------|
|----------------------------------------------------------------------|

Solo Rhythm
Please tell me if you have a better version of this
E|------------------------------------------------------------------------|
B|-----------------------------------------------------------------6---8--|
G|---------------------------7-----8-----3----3----------3-----3---5---7--|
D|--------0------------------5-----5-----5----5----------3-----2---3---5--|
A|----5-----5-5-5-5-5-5-5---------------------5--------------------3---5--|
E|----3-----3-3-3-3-3-3-3-------0-----0-------3-------0-----1-------------|

E|------------------------------------------------------------------------|
B|------------------8---------------------------------4---------------3---|
G|------7---8---3---7--------------------5---3--2--3-----3------5---------|
D|------5---5---5---5--------5----5------3---1--0--1------------5---5---5-|
A|------------------5--------5----5-----------------------------3---------|
E|--------0--0---0------------0---3--0------------------------------------|

E|--------------------------------------------------------------------|
B|------------------------------------------------6----------8--------|
G|------------------------------------------------8---5----5-----7----|
D|--3--5---5--5--5--5---5--5---5--5--5--5----8--------5--5-------7----|
A|--3--5---5--5--5--5---8--5---5--5--5--5----6--------3----------5----|
E|---------3--3--3-------------3--3--3--------------------------------|

Outro:
E|----------|-0-----------0------|
B|---------X|-3-----3-------3----|
G|----------|-2--------2------2--|
D|--3---5---|-0--0---------------|
A|--1---3--X|--------------------|
E|----------|--------------------| Repeat and Fade..
  Feeeeeel..





Comments


Popular Queensryche tabs & chords
I Will Remember Tabs
Neue Regel 1 Tabs
One More Time Around 1 Tabs
Queen Of The Reich Tabs
Queen Of The Reich 2 Tabs
Silent Lucidity Tabs
Silent Lucidity 1 Tabs
Spreading The Disease 1 Tabs
The Killing Words Tabs
Warning Ukulele


Song lyrics



↑ Back to top | Tablatures and chords are parodies/interpretations of the original songs. You may use it for private study, scholarship, research or language learning purposes only
© 2014 AZChords.com Contact us | Privacy policy | DMCA | Add/correct tabs | Request tabs | Top 50 tabs