» » »

Queen Of The Damned, System Tabs (ver.2)

Artists:  A B C D E F G H I J K L M N O P Q R S T U V W X Y Z # 

System Tabs (ver.2)

Queen Of The Damned Tabs
 Rating:
4/5 (4 votes)
System lessons Tabs too difficult? Try these video lessons and learn fast
                This my favorite song on the cd. And the other guy really tried, its a weird song to tab...
but it jujst didnt sound right to me. So I decided to listen to it carefully and figure out all the stuff myself. It might be in the wrong tuning but if ur not playing it with the cd then it sounds just like the song. 

intro/verse(these are all played after one another, so listen to the song to get the rythem and everything right)
Delay pedal effect optional, if you think it sounds good
e|----------------------------------------------------------------------------------------------------|
B|----------------------------------------------------------------------------------------------------|
G|----------------------------------------------------------------------------------------------------|
D|----------------------------------------------------------------------------------------------------|
A|-----------------------8p7h8--------------------------------7h8--------------------------------|
D|------10p8h10h8--------------10\--11--/--10--\--11----------------10--\--11--------------|


|----------------------------------------------------------------------------------------------------------|
|----------------------------------------------------------------------------------------------------------|
|----------------------------------------------------------------------------------------------------------|
|----------------------------------------------------------------------------------------------------------|
|-----------------------8p7h8--------------------------------7h8--------------------------------------|
|------10p8h10h8--------------10\--11--/--10--\--11----------------13h15--/--11p10----------|


Chorus (yet again, your gonna have to listen to the song for the rythem and timing)
|----------------------------------------------------------------------------------------------------------------|
|----------------------------------------------------------------------------------------------------------------|
|--------------5------------3------------6------6\-8-/6------5------------------------------------------------|
|--------------5------------3------------6------6\-8-/6------5------------------------------------------------|
|--------------3------------1------------4------4\-6-/4------3------------------------------------------------|
|----------------------------------------------------------------------------------------------------------------|


Bridge
|----------------------------------------------------------------------------------------------------|
|----------------------------------------------------------------------------------------------------|
|----------------5------9--10----8-----5----------------------------------------------------------|
|----------------5------9--10----8-----5----------------------------------------------------------|
|----------------3------7---8-----6----3----------------------------------------------------------|
|----------------------------------------------------------------------------------------------------|

You play that a few times then it switchs back to to chorus somewhere around there, you play that through til arouund 4:35(not exactly) and then you go back to the intro/verse and play it to the end. Thats it, enjoy system!
            
Submit corrections

comments powered by Disqus
↑ Back to top | Queen Of The Damned Tabs for System. Lyrics for acoustic guitar and electric guitar. Tablatures and chords are parodies/interpretations of the original songs. You may use it for private study, scholarship, research or language learning purposes only