» » »

Queen Adreena, A Bed Of Roses Bass tabs (ver.1)

Artists:  A B C D E F G H I J K L M N O P Q R S T U V W X Y Z # 

A Bed Of Roses Bass tabs (ver.1)

Queen Adreena Tabs
Rating:
0/5 (0 votes)
A Bed Of Roses lessons Tabs too difficult? Try these video lessons and learn fast
                
h = hammer-on
p = pull-off
~ = let note ring
^ = bend
x = mute

Tuning: Dropped D

Guitar part starts, bass comes in with drums.

Play very quickly;
G|------------------------------------------------
D|------------------------------------------------
A|------------------------------------------------
D|-0-0-0-0-0-0-0-0-0-0-0-0-0-0-0-0-0-0-0-0-0-0-0--

G|--------------------
D|--------------------
A|--------------------
D|-/8--8-8--5--5-5-0-- x16

G|------------------------------------------------
D|------------------------------------------------
A|------------------------------------------------
D|-0-0-0-0-0-0-0-0-0-0-0-0-0-0-0-0-0-0-0-0-0-0-0-- 

G|--------------------
D|--------------------
A|--------------------
D|-/8--8-8--5--5-5-0--  x16


G|------------------------------------------------
D|------------------------------------------------
A|------------------------------------------------
D|-0-0-0-0-0-0-0-0-0-0-0-0-0-0-0-0-0-0-0-0-0-0-0-- 

G|--------------------
D|--------------------
A|--------------------
D|-/8--8-8--5--5-5-0--  x16

G|------------------------------------------------
D|------------------------------------------------
A|------------------------------------------------
D|-0-0-0-0-0-0-0-0-0-0-0-0-0-0-0-0-0-0-0-0-0-0-0-- 

End on;
G|-----
D|-----
A|-----
D|-8~--
            

comments powered by Disqus
↑ Back to top | Queen Adreena Bass for A Bed Of Roses. Lyrics for acoustic guitar and electric guitar. Tablatures and chords are parodies/interpretations of the original songs. You may use it for private study, scholarship, research or language learning purposes only