» » »

You're My Best Friend Tabs (ver.2)

Artists:  A B C D E F G H I J K L M N O P Q R S T U V W X Y Z # 

You're My Best Friend Tabs (ver.2)

Queen
Rating:
0/5 (0 votes)

Hard to play? Try these video lessons and learn fast.
                #

Queen: You're my best friend

solo from Live Killers
|---------------------------------------------------------1----|
|------------------------------------------------------(1)1----|
|-------------5h7p5__v\------------7---5v-----4-----2p0---1----|
|---------5-------------5-----5------7----------3----(0)--3----|
|-3---5/7----------------7-------------------------------------|
|--------------------------------------------------------------|
 
|-----------------------|
|-----------------------|
|-----------------------|
|-12b_13r12p10-12v---10-|
|-----------------------|
|-----------------------|

  *       *        *     *       *         *        *          *
|-------------------------------------------------------------------------|
|------------(0)-9-9---9-9------10---------13---------15-15/17___/19---19-|
|-12---12\10-(0)-9-9---9---------9/13------12---14------------------------|
|-12---12----(0)-9-9---9-----10-------12/13-----14h16----------17/19------|
|-------------------------------------------------------------------------|
|-------------------------------------------------------------------------|

      *
|---------15---------17_____/_____(19)------20---------------|
|-----------------------------------------------17-----------|
|-14/16-----------17------17/19____v----------------17-------|
|-------------------------------------------------------17---|
|------------------------------------------------------------|
|------------------------------------------------------------|
            
Hard to play? Try these video lessons and learn fast. | Correct




comments powered by Disqus
↑ Back to top | Tablatures and chords are parodies/interpretations of the original songs. You may use it for private study, scholarship, research or language learning purposes only