» » »

Who Wants To Live Forever Tabs (ver.2)

Artists:  A B C D E F G H I J K L M N O P Q R S T U V W X Y Z # 

Who Wants To Live Forever Tabs (ver.2)

Queen
Rating:
0/5 (0 votes)

Hard to play? Try these video lessons and learn fast.
                Who Wants To Live Forever

                                 by 

                              Brian May

This is the version from the "Live at Wembley '86" album.
It is in a different key from that on "A Kind of Magic", which is in Em.
This is in Dm and has, I think, a nicer atmosphere than the first.
You can play the single version by sliding the whole lot up 2 frets.

Key.
b - bend up one semitone.
r - release bend.
/x slide up to fret x.
x/ slide down to fret x.
h hammer on.
p pull off.

|--------------------------------------------------------------------------
|-6--5-----------5b6--5h6p5------5--6-6---5-6-6/8/10-----------------------
|-------7----------------------------------------------7-9-9b10r9b10r9b10r9
|---------(7)-(7)-----------7------------7------------7--------------------
|--------------------------------------------------------------------------
|--------------------------------------------------------------------------

|-----------------------------|
|-----------------------------|
|-7-5-7-5h7p5---------------3-|
|-------------7-5-----------3-|
|-----------------8-7-5-3-1-1-|
|-----------------------------|

Hope you enjoy it.

Mark Divall


P.S. Would be grateful for the tab to "White Queen."
----------
X-Sun-Data-Type: default
X-Sun-Data-Description: default
X-Sun-Data-Name: who_wants_to_live_forever.tab
X-Sun-Content-Lines: 40

                      Who Wants To Live Forever

                                 by 

                              Brian May

This is the version from the "Live at Wembley '86" album.
It is in a different key from that on "A Kind of Magic", which is in Em.
This is in Dm and has, I think, a nicer atmosphere than the first.
You can play the single version by sliding the whole lot up 2 frets.

Key.
b - bend up one semitone.
r - release bend.
/x slide up to fret x.
x/ slide down to fret x.
h hammer on.
p pull off.

|--------------------------------------------------------------------------
|-6--5-----------5b6--5h6p5------5--6-6---5-6-6/8/10-----------------------
|-------7----------------------------------------------7-9-9b10r9b10r9b10r9
|---------(7)-(7)-----------7------------7------------7--------------------
|--------------------------------------------------------------------------
|--------------------------------------------------------------------------

|-----------------------------|
|-----------------------------|
|-7-5-7-5h7p5---------------3-|
|-------------7-5-----------3-|
|-----------------8-7-5-3-1-1-|
|-----------------------------|

Hope you enjoy it.

Mark Divall


P.S. Would be grateful for the tab to "White Queen."
            
Hard to play? Try these video lessons and learn fast. | Correct




comments powered by Disqus
↑ Back to top | Tablatures and chords are parodies/interpretations of the original songs. You may use it for private study, scholarship, research or language learning purposes only