» » »

Queen, We Are The Champions Bass tabs (ver.1)

Artists:  A B C D E F G H I J K L M N O P Q R S T U V W X Y Z # 

We Are The Champions Bass tabs (ver.1)

Queen Tabs
 Rating:
4/5 (4 votes)
We Are The Champions lessons Tabs too difficult? Try these video lessons and learn fast
                Here's my attempt to write down the Bass Tabs for "We Are The 
Champions" by Queen.
    
    
The "*"s and dots are for rhythm guidance - there are 6 beats in a 
bar and a " * . . * . . " pattern above the tabs for each bar so that 
for example anything underneath the 2nd "*" would be played on the 
4th beat and anything under the following dot would be played on the 
5th beat etc.
    
    
Verse #1:
    
       *.. *..*..  *  .  .  *  .  .    * . . * . .  *  .  .  *  .  .
    
G -------+------+----12-12-10-------+------------+----12-12-12-12-12|
D -6:----|------|-------------13-8--|-10---------|------------------|
A -8:----|------|-------------------|------------|------------------|
E -------+------+-------------------+------------+------------------|
    
    
    * . . * . . *..*.. *..*.. * . . * . .   * . . * . .  * . . * . .
    
G |------------+------+------+----------7-+-8-----------+-----------|
D |-10---------|------|------|--------8---|-------------|-----------|
A |------------|------|------|------------|-------------|-----------|
E |------------+------+------+------------+-------------+-----------|
     
    
    * . . * . . *..*..  * . . * . .  * . . * . .  * . . * ..  *..*..
                     
G |------------+---8---+------------+-------2----+-----------+------|
D |------------|-------|------------|------------|-----------|------|
A |-6----------|-------|-6-----5----|-3----------|-1---------|------|
E |------------+-------+------------+------------+-----------+------|
     
    
Chorus:
     
    *.. * . .  * . . * . .   * . . * . .   * . . * . .   * . . * . .
         
G |-----5----+-------------+-------------+-------------+------------|
D |----------|-3---------5-|-7---------7-|-O-----------|------------|
A |----------|-------------|-------------|---------3-1-|-1-----3----|
E |----------+-------------+-------------+-------------+------------|
      
     
    * ..*..  * . . * . .   * . . * . .   * ..*..  *.. *..  *.. *..  
         
G |--------+-------------+-------------+--------+--------+----------| 
D |--------|-------------|-------------|--------|--------|----------|
A |--------|-O---------O-|-1-------O---|--------|--------|----------|
E |-1------+-------------+-----------3-+-2------+-3------+-3--------|
    
    
    * . . * . .   *.. *..   *.. *..  *.. * . .   *.. * . .    
    
G |-------------+---------+--------+-----------+-----------|
D |-------------|---------|--------|-----3-O---|-----3-O---|
A |-1---------1-|-1---3---|--------|---------3-|---------3-|
E |-------------+---------+-1------+-3---------+-4---------| 
     
      
    *.. * . .   * . . *..   *.. *..
     
G |-----------+-----------+--------|
D |-----3-O---|-----------|--------|
A |-1-------3-|-3-3-------|--------| 5 bars rest.....
E |-----------+-----------+-1------|   
     
     
 Verse #2:
    
    * . . *..  *.. *..  *.. *..  *.. *..  * . . *..  *.. *.. *.. *.. 
    
G |----------+--------+--------+--------+----------+--------+-------|
D |-10-------|--------|--------|--------|-10-------|--------|-------|
A |----------|--------|--------|--------|----------|--------|-------|
E |----------+--------+-8------+--------+----------+--------|-------|
     
     
     
    *.. * . .   *.. *..  *.. * . .   *.. * . .   *.. *..   *.. *..
         
G |---------7-+-8------+-----8---8-+-----8-8-8-+---------+----------|
D |-------8---|--------|-----------|-----------|---------|----------|
A |-----------|--------|-6---------|-6---------|-6-------|-6---5----|
E |-----------+--------+-----------+-----------+---------+----------|
     
    
    *.. *..  *.. *..
         
G |-----2--+--------|
D |--------|--------|
A |-3------|--------|
E |--------|-1------|
     
Chorus x2
    
    
             
            
Submit corrections

comments powered by Disqus
↑ Back to top | Queen Bass for We Are The Champions. Lyrics for acoustic guitar and electric guitar. Tablatures and chords are parodies/interpretations of the original songs. You may use it for private study, scholarship, research or language learning purposes only