» » »

Queen, Was It All Worth It Tabs (ver.1)

Artists:  A B C D E F G H I J K L M N O P Q R S T U V W X Y Z # 

Was It All Worth It Tabs (ver.1)

Queen Tabs
 Rating:
4/5 (4 votes)
Was It All Worth It lessons Tabs too difficult? Try these video lessons and learn fast
                Words and music by Queen

(just got the intro at the mo)

The keyboard
|-----------------1-----1---------1-----1-------------------------|
|-1-----3-4-3-1-----------4-3-1-----------4-3-1-------1-3-1-------|
|-------------------------------------------------3---------------|
|-----------------------------------------------------------------|
|-3---------------1-----------------------------------------------|
|---------------------------------4---------------3-------1-------|


The guitar                                               1st
E-----|-------------------------------------------------|---------------|
B-----|-------------------------------------------------|---------------|
G-----|-----------------2---------------2---------------|---------------|
D-----|-2---------------0-----0---------0-----0---------|-5-------------|
A-11\-|-0-----2-3-2-0-----------3-2-0-----------3-2-0---|-3-----3-2-----|
E-----|-------------------------------------------------|-----------3-0-|

2nd
E-----------------|
B-----------------|
G-----------------|
D-5-------2-------|
A-3---5---0-------|
E-----3-----------|

3rd
E-----------------|
B-----------------|
G-----------------|
D-2---3-2---------|
A---------3---2---|
E-----------------|

4rd
E--------------------------------------------|
B--------------------------------------------|
G--------------------------------------2-----|
D-2---3-2--0---2-0---------------------0-----|
A------------------3---3---2-0-----2---0-----|
E------------------------------3-0-----------|

Ta.
            
Submit corrections

comments powered by Disqus
↑ Back to top | Queen Tabs for Was It All Worth It. Lyrics for acoustic guitar and electric guitar. Tablatures and chords are parodies/interpretations of the original songs. You may use it for private study, scholarship, research or language learning purposes only