>
 >
Tie Your Mother Down

Tie Your Mother Down Drum Tabs

Queen - Tie Your Mother Down chords, tabs, tablatures, lyrics

Guitar lessons | Add/correct | Request | Top 50 tabs Artists:  A B C D E F G H I J K L M N O P Q R S T U V W X Y Z 0-9

Tie Your Mother Down Drum Tabs – Queen

CD, Sheet music, Poster

Do you like Tie Your Mother Down? Share with your friends now
Bass TabsBass Tabs v2ChordsDrum TabsTabsTabs v2Tabs v3Tabs v4Ukulele
Created by Jelle V using TabTrax, tab player/converter, drum notation editor. Free 

tempo=135bpm

HH |--------------------------------|--------------------------------|
S  |--------------------------------|--------------------------------|
B  |--------------------------------|--------------------------------|
    1 e + a 2 e + a 3 e + a 4 e + a  1 e + a 2 e + a 3 e + a 4 e + a |

HH |--------------------------------|--------------------------------|
S  |--------------------------------|--------------------------------|
B  |--------------------------------|--------------------------------|
    1 e + a 2 e + a 3 e + a 4 e + a  1 e + a 2 e + a 3 e + a 4 e + a |

tempo=136bpm

Cr |c-----------------------c---2---|--------------------------------|
HH |--------------------------------|--------------------------------|
S  |--------------------------------|--------------------------------|
B  |x-----------------------x---x---|--------------------------------|
    1 e + a 2 e + a 3 e + a 4 e + a  1 e + a 2 e + a 3 e + a 4 e + a |

Cr |--------------------------------|c-------2-------c-------2-------|
HH |--------------------------------|--------------------------------|
S  |------------------------f-------|--------------------------------|
B  |--------------------x-x---------|x-------x-------x-------x-------|
    1 e + a 2 e + a 3 e + a 4 e + a  1 e + a 2 e + a 3 e + a 4 e + a |

tempo=135bpm

Cr |c-------------------------------|--------------------------------|
Rd |--------b-------b-------b-------|b-------b-------b-------b-------|
HH |--------------------------------|--------------------------------|
S  |--------x---------------x-------|--------x---------------x-------|
B  |x-----x-------x-x-----x-------x-|x-----x-------x-x-----x-------x-|
    1 e + a 2 e + a 3 e + a 4 e + a  1 e + a 2 e + a 3 e + a 4 e + a |

Cr |--------------------------------|c-------2-------c-------c-------|
Rd |b-------b-------b-------b-------|--------------------------------|
HH |--------------------------------|--------------------------------|
S  |--------x---------------x-------|--------------------------------|
B  |x-----x-------x-x-----x-------x-|x-------x-------x-------x-------|
    1 e + a 2 e + a 3 e + a 4 e + a  1 e + a 2 e + a 3 e + a 4 e + a |

tempo=136bpm

Cr |c-------------------------------|--------------------------------|
HH |--------O-------O-------O-------|O-------O-------O-------O-------|
S  |--------x---------------x-------|--------x---------------x-------|
B  |x-----x-------x-x-----x-------x-|x-----x-------x-x-----x-------x-|
    1 e + a 2 e + a 3 e + a 4 e + a  1 e + a 2 e + a 3 e + a 4 e + a |

Cr |--------------------------------|2-------c-------2-------c-------|
HH |O-------O-------O-------O-------|--------------------------------|
S  |--------x---------------x-------|--------------------------------|
B  |x-----x-------x-x-----x-------x-|x-------x-------x-------x-------|
    1 e + a 2 e + a 3 e + a 4 e + a  1 e + a 2 e + a 3 e + a 4 e + a |

tempo=135bpm

Cr |c-------------------------------|--------------------------------|
HH |--------O-------O-------O-------|O-------O-------O-------O-------|
S  |--------x---------------x-------|--------x---------------x-------|
B  |x-----x-------x-x-----x-------x-|x-----x-------x-x-----x-------x-|
    1 e + a 2 e + a 3 e + a 4 e + a  1 e + a 2 e + a 3 e + a 4 e + a |

Cr |--------------------------------|2-------c-------2-------c-------|
HH |O-------O-------O-------O-------|--------------------------------|
S  |--------x---------------x-------|--------------------------------|
B  |x-----x-------x-x-----x-------x-|x-------x-------x-------x-------|
    1 e + a 2 e + a 3 e + a 4 e + a  1 e + a 2 e + a 3 e + a 4 e + a |

tempo=136bpm

Cr |c-------------------------------|--------------------------------|
Rd |--------b-------b-------b-------|b-------b-------b-------b-------|
HH |--------------------------------|--------------------------------|
S  |--------x---------------x-------|--------x---------------x-------|
B  |x-----x-------x-x-----x-------x-|x-----x-------x-x-----x-------x-|
    1 e + a 2 e + a 3 e + a 4 e + a  1 e + a 2 e + a 3 e + a 4 e + a |

Rd |b-------b-------b-------b-------|b-------b-------b-------b-------|
HH |--------------------------------|--------------------------------|
S  |--------x---------------x-------|--------x---------------x-------|
B  |x-----x-------x-x-----x-------x-|x-----x-------x-x-----x-------x-|
    1 e + a 2 e + a 3 e + a 4 e + a  1 e + a 2 e + a 3 e + a 4 e + a |

tempo=135bpm

Cr |c-------------------------------|--------------------------------|
HH |--------O-------O-------O-------|O-------O-------O-------O-------|
S  |--------x---------------x-------|--------x---------------x-------|
B  |x-----x-------x-x-----x-------x-|x-----x-------x-x-----x-------x-|
    1 e + a 2 e + a 3 e + a 4 e + a  1 e + a 2 e + a 3 e + a 4 e + a |

Cr |--------------------------------|c---------------c---------------|
HH |O-------O-------O-------O-------|--------O---------------O-------|
S  |--------x---------------x-------|--------x---------------x-------|
B  |x-----x-------x-x-----x-------x-|x-----x-------x-x-----x-------x-|
    1 e + a 2 e + a 3 e + a 4 e + a  1 e + a 2 e + a 3 e + a 4 e + a |

tempo=136bpm

Cr |c-------------------------------|--------------------------------|
Rd |--------b-------b-------b-------|b-------b-------b-------b-------|
HH |--------------------------------|--------------------------------|
S  |--------x---------------x-------|--------x---------------x-------|
B  |x-----x-------x-x-----x-------x-|x-----x-------x-x-----x-------x-|
    1 e + a 2 e + a 3 e + a 4 e + a  1 e + a 2 e + a 3 e + a 4 e + a |

Cr |----------------c-------c-------|--------------------------------|
Rd |b-------b-----------------------|b-------b-------b-------b-------|
HH |--------------------------------|--------------------------------|
S  |--------x---------------x-------|--------x---------------x-------|
B  |x-----x-------x-x-----x-------x-|x-----x-------x-x-----x-------x-|
    1 e + a 2 e + a 3 e + a 4 e + a  1 e + a 2 e + a 3 e + a 4 e + a |

tempo=135bpm

Cr |c-------------------------------|--------------------------------|
Rd |--------b-------b-------b-------|b-------b-------b-------b-------|
HH |--------------------------------|--------------------------------|
S  |--------x---------------x-------|--------x---------------x-------|
B  |x-----x-------x-x-----x-------x-|x-----x-------x-x-----x-------x-|
    1 e + a 2 e + a 3 e + a 4 e + a  1 e + a 2 e + a 3 e + a 4 e + a |

Cr |c---------------c---------------|c-------------------------------|
HH |--------------------------------|--------------------------------|
S  |--------------------------------|----------------f---------------|
B  |x---------------x---------------|x-----------x-x-----------------|
    1 e + a 2 e + a 3 e + a 4 e + a  1 e + a 2 e + a 3 e + a 4 e + a |

tempo=136bpm

Cr |c-------------------------------|--------------------------------|
HH |--------------------------------|--------------------------------|
S  |--------------------------------|--------------------------------|
B  |x-------------------------------|--------------------------------|
    1 e + a 2 e + a 3 e + a 4 e + a  1 e + a 2 e + a 3 e + a 4 e + a |

Cr |--------------------------------|c-------2-------c-------c-------|
HH |--------------------------------|--------------------------------|
S  |------------------------f-------|--------------------------------|
B  |--------------------x-x---------|x-------x-------x-------x-------|
    1 e + a 2 e + a 3 e + a 4 e + a  1 e + a 2 e + a 3 e + a 4 e + a |

tempo=135bpm

Cr |c-------------------------------|--------------------------------|
HH |--------O-------O-------O-------|O-------O-------O-------O-------|
S  |--------x---------------x-------|--------x---------------x-------|
B  |x-----x-------x-x-----x-------x-|x-----x-------x-x-----x-------x-|
    1 e + a 2 e + a 3 e + a 4 e + a  1 e + a 2 e + a 3 e + a 4 e + a |

Cr |--------------------------------|2-------c-------2-------c-------|
HH |O-------O-------O-------O-------|--------------------------------|
S  |--------x---------------x-------|--------------------------------|
B  |x-----x-------x-x-----x-------x-|x-------x-------x-------x-------|
    1 e + a 2 e + a 3 e + a 4 e + a  1 e + a 2 e + a 3 e + a 4 e + a |

tempo=136bpm

Cr |c-------------------------------|--------------------------------|
HH |--------O-------O-------O-------|O-------O-------O-------O-------|
S  |--------x---------------x-------|--------x---------------x-------|
B  |x-----x-------x-x-----x-------x-|x-----x-------x-x-----x-------x-|
    1 e + a 2 e + a 3 e + a 4 e + a  1 e + a 2 e + a 3 e + a 4 e + a |

Cr |--------------------------------|c-------c-------c-------c-------|
HH |O-------O-------O-------O-------|--------------------------------|
S  |--------x---------------x-------|--------------------------------|
B  |x-----x-------x-x-----x-------x-|x-------x-------x-------x-------|
    1 e + a 2 e + a 3 e + a 4 e + a  1 e + a 2 e + a 3 e + a 4 e + a |

tempo=135bpm

Cr |c-------------------------------|--------------------------------|
Rd |--------b-------b-------b-------|b-------b-------b-------b-------|
HH |--------------------------------|--------------------------------|
S  |--------x---------------x-------|--------x---------------x-------|
B  |x-----x-------x-x-----x-------x-|x-----x-------x-x-----x-------x-|
    1 e + a 2 e + a 3 e + a 4 e + a  1 e + a 2 e + a 3 e + a 4 e + a |

Rd |b-------b-------b-------b-------|b-------b-------b-------b-------|
HH |--------------------------------|--------------------------------|
S  |--------x---------------x-------|--------x---------------x-------|
B  |x-----x-------x-x-----x-------x-|x-----x-------x-x-----x-------x-|
    1 e + a 2 e + a 3 e + a 4 e + a  1 e + a 2 e + a 3 e + a 4 e + a |

tempo=136bpm

Cr |c-------------------------------|--------------------------------|
HH |--------O-------O-------O-------|O-------O-------O-------O-------|
S  |--------x---------------x-------|--------x---------------x-------|
B  |x-----x-------x-x-----x-------x-|x-----x-------x-x-----x-------x-|
    1 e + a 2 e + a 3 e + a 4 e + a  1 e + a 2 e + a 3 e + a 4 e + a |

Cr |c-------------------------------|--------------------------------|
Rd |--------b-------b-------b-------|b-------b-------b-------b-------|
HH |--------------------------------|--------------------------------|
S  |--------x---------------x-------|--------x---------------x-------|
B  |x-----x-------x-x-----x-------x-|x-----x-------x-x-----x-------x-|
    1 e + a 2 e + a 3 e + a 4 e + a  1 e + a 2 e + a 3 e + a 4 e + a |

tempo=135bpm

Cr |----------------c-------c-------|--------------------------------|
Rd |b-------b-----------------------|b-------b-------b-------b-------|
HH |--------------------------------|--------------------------------|
S  |--------x---------------x-------|--------x---------------x-------|
B  |x-----x-------x-x-----x-------x-|x-----x-------x-x-----x-------x-|
    1 e + a 2 e + a 3 e + a 4 e + a  1 e + a 2 e + a 3 e + a 4 e + a |

Cr |c-------------------------------|--------------------------------|
Rd |--------b-------b-------b-------|b-------b-------b-------b-------|
HH |--------------------------------|--------------------------------|
S  |--------x---------------x-------|--------x---------------x-------|
B  |x-----x-------x-x-----x-------x-|x-----x-------x-x-----x-------x-|
    1 e + a 2 e + a 3 e + a 4 e + a  1 e + a 2 e + a 3 e + a 4 e + a |

tempo=136bpm

Cr |c---------------c---------------|c-------------------------------|
HH |--------------------------------|--------------------------------|
S  |--------------------------------|----------------f---------------|
B  |x---------------x---------------|x-----------x-x-----------------|
    1 e + a 2 e + a 3 e + a 4 e + a  1 e + a 2 e + a 3 e + a 4 e + a |

Cr |c-------------------------------|--------------------------------|
HH |--------------------------------|--------------------------------|
S  |--------------------------------|--------------------------------|
B  |x-------------------------------|--------------------------------|
    1 e + a 2 e + a 3 e + a 4 e + a  1 e + a 2 e + a 3 e + a 4 e + a |

tempo=135bpm

Cr |--------------------------------|c-------c-------c-------c-------|
HH |--------------------------------|--------------------------------|
S  |------------------------f-------|--------------------------------|
T3 |------------x-------------------|--------------------------------|
T5 |--------------x-----------------|--------------------------------|
B  |--------------------x-x---------|x-------x-------x-------x-------|
    1 e + a 2 e + a 3 e + a 4 e + a  1 e + a 2 e + a 3 e + a 4 e + a |

Cr |c-------------------------------|--------------------------------|
Rd |--------b-------b-------b-------|b-------b-------b-------b-------|
HH |--------------------------------|--------------------------------|
S  |--------x---------------x-------|--------x---------------x-------|
B  |x-----x-------x-x-----x-------x-|x-----x-------x-x-----x-------x-|
    1 e + a 2 e + a 3 e + a 4 e + a  1 e + a 2 e + a 3 e + a 4 e + a |

tempo=136bpm

Cr |--------------------------------|2-------c-------c-------c-------|
Rd |b-------b-------b-------b-------|--------------------------------|
HH |--------------------------------|--------------------------------|
S  |--------x---------------x-------|--------x---------------x-------|
B  |x-----x-------x-x-----x-------x-|x-----x-------x-x-----x-------x-|
    1 e + a 2 e + a 3 e + a 4 e + a  1 e + a 2 e + a 3 e + a 4 e + a |

Cr |c-------------------------------|--------------------------------|
Rd |--------b-------b-------b-------|b-------b-------b-------b-------|
HH |--------------------------------|--------------------------------|
S  |--------x---------------x-------|--------x---------------x-------|
B  |x-----x-------x-x-----x-------x-|x-----x-------x-x-----x-------x-|
    1 e + a 2 e + a 3 e + a 4 e + a  1 e + a 2 e + a 3 e + a 4 e + a |

tempo=135bpm

Cr |--------------------------------|2-------c-------c-------c-------|
Rd |b-------b-------b-------b-------|--------------------------------|
HH |--------------------------------|--------------------------------|
S  |--------x---------------x-------|--------x---------------x-------|
B  |x-----x-------x-x-----x-------x-|x-----x-------x-x-----x-------x-|
    1 e + a 2 e + a 3 e + a 4 e + a  1 e + a 2 e + a 3 e + a 4 e + a |

Cr |c-------------------------------|--------------------------------|
Rd |--------b-------b-------b-------|b-------b-------b-------b-------|
HH |--------------------------------|--------------------------------|
S  |--------x---------------x-------|--------x---------------x-------|
B  |x-----x-------x-x-----x-------x-|x-----x-------x-x-----x-------x-|
    1 e + a 2 e + a 3 e + a 4 e + a  1 e + a 2 e + a 3 e + a 4 e + a |

tempo=136bpm

Rd |b-------b-------b-------b-------|b-------b-------b-------b-------|
HH |--------------------------------|--------------------------------|
S  |--------x---------------x-------|--------x---------------x-------|
B  |x-----x-------x-x-----x-------x-|x-----x-------x-x-----x-------x-|
    1 e + a 2 e + a 3 e + a 4 e + a  1 e + a 2 e + a 3 e + a 4 e + a |

Cr |c-------------------------------|--------------------------------|
Rd |--------b-------b-------b-------|b-------b-------b-------b-------|
HH |--------------------------------|--------------------------------|
S  |--------x---------------x-------|--------x---------------x-------|
B  |x-----x-------x-x-----x-------x-|x-----x-------x-x-----x-------x-|
    1 e + a 2 e + a 3 e + a 4 e + a  1 e + a 2 e + a 3 e + a 4 e + a |

tempo=135bpm

Cr |--------------------------------|2-------c-------c-------c-------|
Rd |b-------b-------b-------b-------|--------------------------------|
HH |--------------------------------|--------------------------------|
S  |--------x---------------x-------|--------x---------------x-------|
B  |x-----x-------x-x-----x-------x-|x-----x-------x-x-----x-------x-|
    1 e + a 2 e + a 3 e + a 4 e + a  1 e + a 2 e + a 3 e + a 4 e + a |

Cr |2-------------------------------|--------------------------------|
Rd |--------b-------b-------b-------|b-------b-------b-------b-------|
HH |--------------------------------|--------------------------------|
S  |--------x---------------x-------|--------x---------------x-------|
B  |x-----x-------x-x-----x-------x-|x-----x-------x-x-----x-------x-|
    1 e + a 2 e + a 3 e + a 4 e + a  1 e + a 2 e + a 3 e + a 4 e + a |

tempo=136bpm

Cr |--------------------------------|2-------c-------c-------2-------|
Rd |b-------b-------b-------b-------|--------------------------------|
HH |--------------------------------|--------------------------------|
S  |--------x---------------x-------|--------x---------------x-------|
B  |x-----x-------x-x-----x-------x-|x-----x-------x-x-----x-------x-|
    1 e + a 2 e + a 3 e + a 4 e + a  1 e + a 2 e + a 3 e + a 4 e + a |

Cr |c-------------------------------|--------------------------------|
HH |--------O-------O-------O-------|O-------O-------O-------O-------|
S  |--------x---------------x-------|--------x---------------x-------|
B  |x-----x-------x-x-----x-------x-|x-----x-------x-x-----x-------x-|
    1 e + a 2 e + a 3 e + a 4 e + a  1 e + a 2 e + a 3 e + a 4 e + a |

tempo=135bpm

HH |O-------O-------O-------O-------|O-------O-------O---------------|
S  |--------x---------------x-------|--------x---------------f-------|
B  |x-----x-------x-x-----x-------x-|x-----x-------x-x-----x---------|
    1 e + a 2 e + a 3 e + a 4 e + a  1 e + a 2 e + a 3 e + a 4 e + a |

Cr |c-----------------------c---c---|--------------------------------|
HH |--------------------------------|--------------------------------|
S  |--------------------------------|--------------------------------|
B  |x-----------------------x---x---|--------------------------------|
    1 e + a 2 e + a 3 e + a 4 e + a  1 e + a 2 e + a 3 e + a 4 e + a |

Cr |2-------c-------2-------c-------|--------2-------c---------------|
HH |--------------------------------|--------------------------------|
S  |x-------x-------x-------x-------|--------x---x---x-x-x-x-x-------|
T4 |--------------------------------|---------------------------x-x--|
T5 |--------------------------------|-------------------------------x|
B  |x-------x-------x-------x-------|----x-x-------------------------|
    1 e + a 2 e + a 3 e + a 4 e + a  1 e + a 2 e + a 3 e + a 4 e + a |

tempo=135bpm

Cr |c-------------------------------|--------------------------------|
HH |--------------------------------|--------------------------------|
S  |--------x---------------x-------|x-----------------------x-------|
T3 |--------------------------------|--------x-----------------------|
T4 |--------------------------------|----------------x---------------|
T5 |x-----x-x-----x-x-----x-x-----x-|------------x-------x-------x---|
T6 |--------------------------------|----x---------------------------|
B  |x-----x-------x-x-----x-------x-|x-------x-------x-------x-------|
    1 e + a 2 e + a 3 e + a 4 e + a  1 e + a 2 e + a 3 e + a 4 e + a |

HH |--------------------------------|--------------------------------|
S  |--------------------------------|------------------------f-------|
T3 |x-------------------x-x-x-x---x-|--------------------------------|
T4 |--------x-------x---------------|--x-x-x-x---x-------------------|
T5 |----x-------x-------------------|----------------x-x-------------|
B  |x-------------------------------|--------------------x-x---------|
    1 e + a 2 e + a 3 e + a 4 e + a  1 e + a 2 e + a 3 e + a 4 e + a |

tempo=136bpm

Cr |2-------------------------------|--------------------------------|
Rd |--------b-------b-------b-------|b-------b-------b-------b-------|
HH |--------------------------------|--------------------------------|
S  |--------x---------------x-------|--------x---------------x-------|
B  |x-----x-------x-x-----x-------x-|x-----x---------x-----x-------x-|
    1 e + a 2 e + a 3 e + a 4 e + a  1 e + a 2 e + a 3 e + a 4 e + a |

Cr |c---------------c---------------|c-------------------------------|
HH |--------------------------------|--------------------------------|
S  |--------------------------------|----------------f---------------|
B  |x---------------x---------------|x-----------x-x-----------------|
    1 e + a 2 e + a 3 e + a 4 e + a  1 e + a 2 e + a 3 e + a 4 e + a |

tempo=135bpm

Cr |c-------------------------------|--------c-----------------------|
HH |--------------------------------|--------------------------------|
S  |--------------------------------|f-------------------------------|
B  |x---------------------------x-x-|--------x-----------------------|
    1 e + a 2 e + a 3 e + a 4 e + a  1 e + a 2 e + a 3 e + a 4 e + a |

Cr |--------------------------------|c-------2-------c-------2-------|
HH |--------------------------------|--------------------------------|
S  |------------------------f-------|--------------------------------|
B  |--------------------x-x---------|x-------x-------x-------x-------|
    1 e + a 2 e + a 3 e + a 4 e + a  1 e + a 2 e + a 3 e + a 4 e + a |

tempo=136bpm

Cr |c-------------------------------|--------------------------------|
Rd |--------b-------b-------b-------|b-------b-------b-------b-------|
HH |--------------------------------|--------------------------------|
S  |--------x---------------x-------|--------x---------------x-------|
B  |x-----x-------x-x-----x-------x-|x-----x-------x-x-----x-------x-|
    1 e + a 2 e + a 3 e + a 4 e + a  1 e + a 2 e + a 3 e + a 4 e + a |

Cr |----------------c-------c-------|--------------------------------|
Rd |b-------b-----------------------|b-------b-------b-------b-------|
HH |--------------------------------|--------------------------------|
S  |--------x---------------x-------|--------x---------------x-------|
B  |x-----x-------x-x-----x-------x-|x-----x-------x-x-----x-------x-|
    1 e + a 2 e + a 3 e + a 4 e + a  1 e + a 2 e + a 3 e + a 4 e + a |

tempo=135bpm

Rd |b-------b-------b-------b-------|b-------b-------b-------b-------|
HH |--------------------------------|--------------------------------|
S  |--------x---------------x-------|--------x---------------x-------|
B  |x-----x-------x-x-----x-------x-|x-----x-------x-x-----x-------x-|
    1 e + a 2 e + a 3 e + a 4 e + a  1 e + a 2 e + a 3 e + a 4 e + a |

Cr |----------------c-------c-------|--------------------------------|
Rd |b-------b-----------------------|b-------b-------b-------b-------|
HH |--------------------------------|--------------------------------|
S  |--------x---------------x-------|--------x---------------x-------|
B  |x-----x-------x-x-----x---------|x-----x-------x-x-----x-------x-|
    1 e + a 2 e + a 3 e + a 4 e + a  1 e + a 2 e + a 3 e + a 4 e + a |

tempo=136bpm

Cr |c-------------------------------|--------------------------------|
Rd |--------b-------b-------b-------|b-------b-------b-------b-------|
HH |--------------------------------|--------------------------------|
S  |--------x---------------x-------|--------x---------------x-------|
B  |x-----x-------x-x-----x-------x-|x-----x-------x-x-----x-------x-|
    1 e + a 2 e + a 3 e + a 4 e + a  1 e + a 2 e + a 3 e + a 4 e + a |

Cr |----------------c-------c-------|--------------------------------|
Rd |b-------b-----------------------|b-------b-------b-------b-------|
HH |--------------------------------|--------------------------------|
S  |--------x---------------x-------|--------x---------------x-------|
B  |x-----x-------x-x-----x-------x-|x-----x-------x-x-----x-------x-|
    1 e + a 2 e + a 3 e + a 4 e + a  1 e + a 2 e + a 3 e + a 4 e + a |

tempo=135bpm

Rd |b-------b-------b-------b-------|b-------b-------b-------b-------|
HH |--------------------------------|--------------------------------|
S  |--------x---------------x-------|--------x---------------x-------|
B  |x-----x-------x-x-----x-------x-|x-----x-------x-x-----x-------x-|
    1 e + a 2 e + a 3 e + a 4 e + a  1 e + a 2 e + a 3 e + a 4 e + a |

Cr |c---------------c---------------|c-------------------------------|
HH |--------------------------------|--------------------------------|
S  |--------------------------------|----------------f---------------|
B  |x---------------x---------------|x-----------x-x-----------------|
    1 e + a 2 e + a 3 e + a 4 e + a  1 e + a 2 e + a 3 e + a 4 e + a |

Cr |c-------------------------------|--------------------------------|
HH |--------------------------------|--------------------------------|
S  |--------------------------------|--------------------------------|
B  |x-------------------------------|--------------------------------|
    1 e + a 2 e + a 3 e + a 4 e + a  1 e + a 2 e + a 3 e + a 4 e + a |

Cr |--------------------------------|------------------------c---2---|
HH |--------------------------------|--------------------------------|
S  |--------------------------------|----------------f---------------|
T3 |------------x-x-x-x---x---------|--------------------------------|
T4 |--------------------------x-x-x-|x---x---------------------------|
T5 |--------------------------------|--------x-x-x-------------------|
B  |--------------------------------|--------------x---------x---x---|
    1 e + a 2 e + a 3 e + a 4 e + a  1 e + a 2 e + a 3 e + a 4 e + a |



Key:
        notes: x=normal, X=accent, f=flam, g=ghost, d=double stroke
        cymbals: c=crash, s=splash, t=trash/china, 2=2nd crash, O=open High hat
        snares: x=normal, s=side stick, c=cow bell, e=electric snare
        bass: x=normal, f=high hat foot
        tq = quarter note triplet
        tt = 8th note triplet
        tl = 16th note triplet

        |  3   |
        | .//. | means repeat the previous 2 measures, 3 more times (i.e. play a total of 4 times)





Comments


Popular Queen tabs & chords
Cool Cat Bass Tabs
The Miracle Bass Tabs
Hammer To Fall Chords
Las Palabras De Amor 1 Chords
Is This The World We Created Tabs
Lily Of The Valley Tabs
The World We Created 1 Tabs
Bohemian Rhapsody Intro Ukulele
Breakthru Ukulele
Living On My Own Ukulele


Song lyrics



↑ Back to top | Tablatures and chords are parodies/interpretations of the original songs. You may use it for private study, scholarship, research or language learning purposes only
© 2014 AZChords.com Contact us | Privacy policy | DMCA | Add/correct tabs | Request tabs | Top 50 tabs