>
 >
Tie Your Mother Down 2

Tie Your Mother Down 2 Bass Tabs

Queen - Tie Your Mother Down 2 chords, tabs, tablatures, lyrics

Guitar lessons | Add/correct | Request | Top 50 tabs Artists:  A B C D E F G H I J K L M N O P Q R S T U V W X Y Z 0-9

Tie Your Mother Down 2 Bass Tabs – Queen

CD, Sheet music, Poster

Do you like Tie Your Mother Down 2? Share with your friends now
Bass TabsBass Tabs v2ChordsDrum TabsTabsTabs v2Tabs v3Tabs v4Ukulele
Album:	greatest hits

                         Tie Your Mother Down
                             Queen
T=128



         w   4x  H  e  e  +  w     w     q  q q  q
----||---r---||-----------|-----|--r--|-------------|-----------------|
4:--||*--e--*||-----------|-----|--e--|--5--4 ------|-----------------|
4:--||*--s--*||-----------|-----|--s--|-------3--2--|-----------------|
----||---t---||--5--5--5--|--5--|--t--|-------------|-----------------|


e  e     e^e^ e^    e  e     e^e^ e^    %     %     q  q  q  q
--------------2-------------------2--|-----|-----|--------------||----|
-------------------------------------|-----|-----|--5--4--------||----|
0--0-----3p0--------0--0-----3p0-----|-----|-----|--------3--2--||----|
-------------------------------------|-----|-----|--------------||----|


e  e     e^e^ e^    e  e     e^e^ e^    %     %     q  q q  q
--------------2-------------------2--|-----|-----|-------------|------|
-------------------------------------|-----|-----|--5--4 ------|------|
0--0-----3p0--------0--0-----3p0-----|-----|-----|-------3--2--|------|
-------------------------------------|-----|-----|-------------|------|


e  e     e^e^ e^    e  e     e^e^ e^    %     %     q  q q  q
--------------2-------------------2--|-----|-----|-------------|------|
-------------------------------------|-----|-----|--5--4 ------|------|
0--0-----3p0--------0--0-----3p0-----|-----|-----|-------3--2--|------|
-------------------------------------|-----|-----|-------------|------|


e  e  e  e     e  e  e  e     %     %
---------------------------|-----|-----|------------------------------|
---------------------------|-----|-----|------------------------------|
7--7--7--7-----7--7--7--7--|-----|-----|------------------------------|
---------------------------|-----|-----|------------------------------|


e  q     e     e  e  e  e     q     e  e     e  e  e^e^ e^
---------------------------|----------------------------2--|----------|
---5-----5-----5--5--5--5--|-------------------------------|----------|
7--------------------------|--0-----0--0-----0--0--3p0-----|----------|
---------------------------|-------------------------------|----------|


e  e     e^e^ e^    e  e     e^e^ e^    e  e  e  e     e  e q
--------------2-------------------2--|-------------------------|------|
-------------------------------------|-------------------------|------|
0--0-----3p0--------0--0-----3p0-----|--0--0--0--0-----0--0/12 |------|
-------------------------------------|-------------------------|------|


e  e  e  e     e  e  q      e  e  e  e     e  e  e  e
------------------------||-----------------------------|--------------|
------------------------||--------4--4-----------------|--------------|
0--0--2--2-----3--3--4--||--5--5-----------5--5--5--5--|--------------|
------------------------||-----------------------------|--------------|


e  e  e  e     e  e  e  e     e  e  e  e     e  e  e  e
---------------------------|-----------------------------|------------|
---------------------------|-----------------------7-----|------------|
5--5--5--5-----5--5--5--5--|-----------------------------|------------|
---------------------------|--5--5--5--5-----5--5-----5--|------------|


e  e  e  e     e  e     e^ e^ e^    e  e  e  e     e  e  e  e
---------------------------------|-----------------------------|------|
---7--7--7-----7--7-----7--7--7--|-----------------------------|------|
---------------------------------|--5--5--5--5-----5--5--5--5--|------|
5--------------------------------|-----------------------------|------|


e  e  e  e     e  e  e  e     h     h     h     h     q  q  h
---------------------------|-----------|-----------|--------r---------|
---------------------------|--5-----4--|-----------|--------e---------|
5--5--5--5-----5--5--5--5--|-----------|--3-----2--|--0--0--s---------|
---------------------------|-----------|-----------|--------t---------|


     w   2x  q  q q  q      e  e     e^e^ e^    e  e     e^e^ e^
||---r---||-------------||----------------2-------------------2--|----|
||*--e--*||--5--4 ------||---------------------------------------|----|
||*--s--*||-------3--2--||--0--0-----3p0--------0--0-----3p0-----|----|
||---t---||-------------||---------------------------------------|----|


%     %     q  q  q  e e     e  e  e  e     e  e  e  e     %
---|-----|----------------|-----------------------------|-----|-------|
---|-----|--5--4----------|--------6--6-----7--7--9--9--|-----|-------|
---|-----|--------3--2/7--|--7--7-----------------------|-----|-------|
---|-----|----------------|-----------------------------|-----|-------|


%     e  q  q  Q    e  e     e^e^ e^    e  e     e^e^ e^
---|-------------|----------------2----------------------|------------|
---|-----5--5--5 |---------------------------------------|------------|
---|--7----------|--0--0-----3p0--------0--0-----3p0--0--|------------|
---|-------------|---------------------------------------|------------|


q  q  q  q      e  e  e  e     e  e  e  e
------------||-----------------------------|--------------------------|
------------||-----------------------------|--------------------------|
0--2--3--4--||--5--5--5--5-----5--5--5--5--|--------------------------|
------------||-----------------------------|--------------------------|


e  e  e  e     e  e  e  e     e  e  e  e     e  e  e  e
---------------------------|-----------------------------|------------|
---------------------------|-----------------------------|------------|
5--5--5--5-----5--5--5--5--|-----------------------------|------------|
---------------------------|--5--5--5--5-----5--5--5--5--|------------|


e  e  e  e     e  e  e  e     e  e  q  q  q     e  e  q  q  q
---------------------------|-----------------|-----------------|------|
---------------------------|--------4--5--7--|--------4--5--7--|------|
---------------------------|--5--5-----------|--5--5-----------|------|
5--5--5--5-----5--5--5--5--|-----------------|-----------------|------|


h  h     h  h     w  +  w  +  w     q  q  q  q
------|--------|-----|-----|-----|--------------||--------------------|
5--4--|--------|-----|-----|-----|--5--4--------||--------------------|
------|--3--2--|--0--|--0--|--0--|--------3--2--||--------------------|
------|--------|-----|-----|-----|--------------||--------------------|


     e  e     e^e^ e^    e  e     e^e^ e^    %     %
||-----------------2-------------------2--|-----|-----|---------------|
||*---------------------------------------|-----|-----|---------------|
||*--0--0-----3p0--------0--0-----3p0-----|-----|-----|---------------|
||----------------------------------------|-----|-----|---------------|


q  q  q  q     e  e     e^e^ e^    e  e     e^e^ e^    %     %
------------|----------------2-------------------2--|-----|-----|-----|
5--4--------|---------------------------------------|-----|-----|-----|
------3--2--|--0--0-----3p0--------0--0-----3p0-----|-----|-----|-----|
------------|---------------------------------------|-----|-----|-----|


q  q  q  q    e  e  e  e     e  e  e  e
-----------|-----------------------------|----------------------------|
5--4-------|--------6--6-----7--7--9--9--|----------------------------|
------3--2/|--7--7-----------------------|----------------------------|
-----------|-----------------------------|----------------------------|


e  e  e  e     e  e  e  e     e  e  e   e      e  e  e  e
------7--7-----6--6--------|-------------------------------|----------|
---------------------9--9--|-------------------------------|----------|
7--7-----------------------|--7--7-------------------------|----------|
---------------------------|--------10--10-----9--9--7--7--|----------|


e  q  q  Q     e  e     e^e^ e^    e  e     e^e^ e^    %     %
------------|----------------2-------------------2--|-----|-----|-----|
---5--5--5--|---------------------------------------|-----|-----|-----|
7-----------|--0--0-----3p0--------0--0-----3p0-----|-----|-----|-----|
------------|---------------------------------------|-----|-----|-----|


q  q  q  q     e  e     e^e^ e^    e  e     e^e^ e^    %     %
------------|----------------2-------------------2--|-----|-----|-----|
5--4--------|---------------------------------------|-----|-----|-----|
------3--2--|--0--0-----3p0--------0--0-----3p0-----|-----|-----|-----|
------------|---------------------------------------|-----|-----|-----|


q  q  q  q   2x  e  e  q  e  e  e  e
-------------||-----------r-----------|-------------------------------|
5--4--------*||-----------e-----------|-------------------------------|
------3--2--*||--7--7--7--s--7--7--7--|-------------------------------|
-------------||-----------t-----------|-------------------------------|


e  e  e  e     e  e  e  e     e  e  e  e     e  e  e  e
---------------------------|-----------------------------|------------|
---------------------------|-----------------------------|------------|
7--7--7--7-----7--7--7--7--|--7--7--7--7-----7--7--7--7--|------------|
---------------------------|-----------------------------|------------|


e  q  q  Q     q  q  q  e  e     w     q^ q^ q^    Q  e
------------|-----r--r--------|--r--|--------------------|------------|
---5--5--5--|--0--e--e--0--0--|--e--|--------------------|------------|
7-----------|-----s--s--------|--s--|--0--0--0-----0--0--|------------|
------------|-----t--t--------|--t--|--------------------|------------|


q  q  q  q      e  e  e  e     e  e  e  e
------------||-----------------------------|--------------------------|
------------||--------4--4-----5--5--7--7--|--------------------------|
0--2--3--4--||--5--5-----------------------|--------------------------|
------------||-----------------------------|--------------------------|


e  e  e  e     e  e  e  e     q^ q^ q^     q^  q^  q^    w
---------------------------|--------------------------|--r--|---------|
------4--4-----5--5--6--6--|--7--9--10-----10--10-----|--e--|---------|
5--5-----------------------|-----------------------9--|--s--|---------|
---------------------------|--------------------------|--t--|---------|


e  e  e  e     e  e  e  e     e  e  q     q        q     h  h
---------------------------|--------------------------|--------|------|
------4--4-----5--5--7--7--|--------4-----5--------7--|--5--4--|------|
5--5-----------------------|--5--5--------------------|--------|------|
---------------------------|--------------------------|--------|------|


h  h     q  q  h     q  q  h     w     q  q  q  q
------|-----r--r--|--------r--|--r--|--------------||-----------------|
------|-----e--e--|--------e--|--e--|--5--4--------||-----------------|
3--2--|--0--s--s--|--0--0--s--|--s--|--------3--2--||-----------------|
------|-----t--t--|--------t--|--t--|--------------||-----------------|


     e  e     e^e^ e^    e  e     e^e^ e^    %     %
||-----------------2-------------------2--|-----|-----|---------------|
||*---------------------------------------|-----|-----|---------------|
||*--0--0-----3p0--------0--0-----3p0-----|-----|-----|---------------|
||----------------------------------------|-----|-----|---------------|


q  q  q  q   3x  w
-------------||-----||------------------------------------------------|
5--4--------*||-----||------------------------------------------------|
------3--2--*||--5--||------------------------------------------------|
-------------||-----||------------------------------------------------|


e  s  s     s  s  e     s^ s^ s^ t^ t  t  t  t     e  e     s  s
------------------5---------------------------------------------------|
------5-----7--7--------7--5------------------------------------------|
0--7--------------------------7--5--5--0--3--0-----3--0---------------|
------------------------------------------------------------3--4------|


e     q  q  q  q
---|-----r--r--r--||--------------------------------------------------|
---|-----e--e--e--||--------------------------------------------------|
---|-----s--s--s--||--------------------------------------------------|
5--|--5--t--t--t--||--------------------------------------------------|


======================================================================
==                      TABLATURE EXPLANATION                       ==
======================================================================

----------                ----------                ----t---|
----5h8--- Hammeron       ----(8)--- Ghost          ----6---| Tap
----------                ---------- Note           --------|
----5p8--- Pulloff        ----------                --------|

----------                ----------                -----p--|
----5/8--- Slide Up       -----x---- Dead           -----7--| Pop
----------                ---------- Note           --s-----|
----5 8--- Slide Down     ----------                --5-----| Slap

----------                ||------|| Repeat         --------|
----5~~~-- Vibrato        ||*----*||                ---5^---| Bend
----------                ||*----*||                --------|
----------                ||------||                --------|

----------                ----------                --------|
-4:------- Time           ----------                --------|
-4:------- Signature      ----------                --------|
----------                ----------                --------|

Rhythm:
  w = whole note            W = dotted whole
  h = half note             H = dotted half
  q = quarter note          Q = dotted quarter
  e = eighth note           E = dotted eighth
  s = sixteenth note        S = dotted sixteenth
  t = 32nd note             T = dotted 32nd
  x = 64th note             X = dotted 64th
  ^ = triplet

======================================================================
==           Created with a demo version of BUCKET O' TAB           ==
==             tablature creation software for Windows              ==
======================================================================





Comments


Popular Queen tabs & chords
Action This Day Bass Tabs
Crazy Little Thing Called Love Bass Tabs
Innuendo Bass Tabs
Crazy Little Thing Called Love 2 Chords
Flash Chords
Another One Bites The Dust Drum Tabs
Dear Friends Tabs
It's Late Tabs
One Year Of Love Tabs
Going Back Ukulele


Song lyrics



↑ Back to top | Tablatures and chords are parodies/interpretations of the original songs. You may use it for private study, scholarship, research or language learning purposes only
© 2014 AZChords.com Contact us | Privacy policy | DMCA | Add/correct tabs | Request tabs | Top 50 tabs