» » »

Invisible Man Bass tabs (ver.1)

Artists:  A B C D E F G H I J K L M N O P Q R S T U V W X Y Z # 

Invisible Man Bass tabs (ver.1)

Queen
Rating:
0/5 (0 votes)

Hard to play? Try these video lessons and learn fast.
                The Invisible Man is personally my favorite Queen song of all time. Even the video is awesome!

This is basically the main bass riff of the song;
G|----------------------------|----------------------------|
D|------------------------1/3-|----------------------------|
A|-3-3-3--3-3-3-3-3-3-3-3-----|-3-3-3--3-3-3-3-3-3-3-3-----|
E|----------------------------|------------------------6/3-|

But during the bridge (the 'ha, ha, ha, hello' bit)

   G
G|------------------------------|
D|------------------------------|
A|------------------------------|
E|-3-3-3--3-3-3--3-3-3--3-3-3---|

I think that's how it goes. Mind you, it's quite a funky bass riff throughout the song.

   D                              E
G|------------------------------|------------------------------|
D|------------------------------|-2-2-2--2-2-2--2-2-2--2-2-2---|
A|-5-5-5--5-5-5--5-5-5--5-5-5---|------------------------------|
E|------------------------------|------------------------------|
            
Hard to play? Try these video lessons and learn fast. | Correct




comments powered by Disqus
↑ Back to top | Tablatures and chords are parodies/interpretations of the original songs. You may use it for private study, scholarship, research or language learning purposes only