» » »

Invisible Man Tabs (ver.1)

Artists:  A B C D E F G H I J K L M N O P Q R S T U V W X Y Z # 

Invisible Man Tabs (ver.1)

Queen
Rating:
0/5 (0 votes)

Hard to play? Try these video lessons and learn fast.
                The Invisible Man by Queen


solo
|----------------------------------------------------------------------------|
|----------------------------------------------------------------------------|
|-15b16-b17-b17-16-b19-17b19-17-b19-17-b19r-17-17b19-17-b19-17-b19-17-b19-17-|
|----------------------------------------------------------------------------|
|----------------------------------------------------------------------------|
|----------------------------------------------------------------------------|


|-------------------------------------------------------------------------------------------20191817--------------------|
|-16-2020191817--------20--1817--------20x1817--------20191817--------20191917----------2019--------20191817191817------|
|--------------20191817--(0)---20191817-------20191720--------20191817--------2019181717--------------------------201917|
|-----------------------------------------------------------------------------------------------------------------------|
|-----------------------------------------------------------------------------------------------------------------------|
|-----------------------------------------------------------------------------------------------------------------------|


|------------------------------------------------------------------------____----------------------|
|--------------------------------------20----171817--172017--171817--17201817--171817--172017--1720|
|------------------------17___\/19b__21--1720------20------20------20--------20------20------20----|
|-2019171917--1717___\/20--------------------------------------------------------------------------|
|-----------18-------------------------------------------------------------------------------------|
|--------------------------------------------------------------------------------------------------|


|------------------------------20---(1818)20191817------------------20191817-----------------20191817..|
|-20b22vv--20191817-------------------------------20191817------------------20191817-------------------|
|------------------2019171917vv---17----------------------20191817------------------20191817-----------|
|------------------------------------------------------------------------------------------------------|
|------------------------------------------------------------------------------------------------------|
|------------------------------------------------------------------------------------------------------|
            
Hard to play? Try these video lessons and learn fast. | Correct




comments powered by Disqus
↑ Back to top | Tablatures and chords are parodies/interpretations of the original songs. You may use it for private study, scholarship, research or language learning purposes only