>
 >
Now I'm Here 1

Now I'm Here 1 Guitar Tabs

Queen - Now I'm Here 1 chords, tabs, tablatures, lyrics

Guitar lessons | Add/correct | Request | Top 50 tabs Artists:  A B C D E F G H I J K L M N O P Q R S T U V W X Y Z 0-9

Now I'm Here 1 Guitar Tabs – Queen

CD, Sheet music, Poster

Do you like Now I'm Here 1? Share with your friends now
TabsTabs v2
#

Queen: Now I'm Here

first tacets
|---------|----|--------|---------|-------------------------|---------|
|---------|----|------2-|-3-------|-------------------------|---------|
|-22222222|-0/-|-222220-|-22222222|-----------------00000000|-000000-0|
|-00000000|-/0-|-0000000|-00000000|-000000000000000000000000|-000000-0|
|---------|----|--------|---------|-333333332222222211111111|-1111113-|
|---------| 3X |--------|---------|-------------------------|---------|


|---------|----|--------|----------|-----------------|------------------|
|---------|----|------2-|-3--------|-----------------|-------2-3--------|
|-22222222|-0/-|-2222202|-222222222|-----------------|-2222220-222222222|
|-00000000|-/0-|-0000000|-000000000|-0000000000000-00|-00000000000000000|
|---------|----|--------|----------|-33333333222223--|------------------|
|---------|----|--------|----------|-----------------|------------------|


|----------------|---------------------------------------------|
|----------------|-2----3---32----3----4----5----54----5---2-2-|
|----------------|-2----0---02----0----4----4----44----4---4-4-|
|----------000000|-2----2----2----2----4----4-----4----4---4-4-|
|-333333332222222|-0----0----0----0----2----2-----2----2---4-4-|
|----------------|---------------------------------------------|


|----------------------------------------------5-5---|
|---------------3-3-------------9-9--9-109---7-5-5---|
|---------------2-2-------------9-9--9--99---7-6-6---|
|-----2--4-2----0-02--4-4-------9-9--9---9---7-7-7---|
|--------2-0----<c>0--2-2-----577-7777---7---5-7-7---|
|-0-34-0-----340---------2-567--0-0000---0-----5-5---|

outtro solo
|-5557-7--------/55557-7-7---------/12121212121212111112121111-9-9|
|-7777-7-79-----/77777-7-79-7------/141414141414141212141412121010|
|---------978-------------978-------------------------------------|
|------------9---------------97-----------------------------------|
|------------------------------9----------------------------------|
|-----------------------------------------------------------------|

|-77--------------------|
|-77977--7---77---77...-|
|---978--7---77---77...-|
|------977---77---77...-|
|--------9--999--999...-|
|-----------------------|

Lyrics:
Now I'm Here (May)
 
Here I stand
Look around around around
But you won't see me

Now I'm here, Now I'm there, I'm just a...

Just a new man
Yes you made me live again

A baby I was when you took my hand
And the light of the night burned bright
And the people all stared didn't understand
But you knew my name on sight

Whatever came of you and me
America's new bride to be - don't worry baby I'm safe and sound

Down in the dungeon just Peaches 'n' me
Don't I love her so

A thin moon me in a smoke-screen sky
Where the beams of your lovelight chase
Don't move, don't speak, don't feel no pain
With a rain running down my face

Your matches still light up the sky
And many a tear lives on in my eye

Down in the city just Hoople 'n' me
Don't I love him so

Whatever comes of you and me
I love to leave my memory with you

Now I'm here
Think I'll stay around around around
We'll be down in the city justa you 'n' me
Don't I love you so





Comments


Popular Queen tabs & chords
Another One Bites The Dust 1 Bass Tabs
Dead On Time Bass Tabs
Earth 1 Chords
Going Back Chords
Love Of My Life Chords
One Vision 3 Tabs
She Makes Me Tabs
Who Needs You Tabs
Keep On Passing The Open Windows Ukulele
We Believe Ukulele


Song lyrics



↑ Back to top | Tablatures and chords are parodies/interpretations of the original songs. You may use it for private study, scholarship, research or language learning purposes only
© 2014 AZChords.com Contact us | Privacy policy | DMCA | Add/correct tabs | Request tabs | Top 50 tabs