>
 >
Need Your Loving Tonight

Need Your Loving Tonight Guitar Tabs

Queen - Need Your Loving Tonight chords, tabs, tablatures, lyrics

Guitar lessons | Add/correct | Request | Top 50 tabs Artists:  A B C D E F G H I J K L M N O P Q R S T U V W X Y Z 0-9

Need Your Loving Tonight Guitar Tabs – Queen

CD, Sheet music, Poster

Do you like Need Your Loving Tonight? Share with your friends now
ChordsTabsTabs v2Ukulele
Hi.

Intro
e|----------------------------|
B|----------------------------|
G|----------------------------|----->Play This Part 4 Times
D|----9-9-9-9--6-6----4-------|
A|----7-7-7-7--4-4----2-----2-|
E|-0----------------4----3b-0-|

e|-----------|-------------|-------------|---------------|
B|-----------|-------------|-------------|---------------|
G|-----------|-------------|-------------|---------------|
D|-2-2-2-2-2-|--4--6-4-4-4-|-2-2-2-2-2-2-|-4-4-4-4-4-4-4-|
A|-0-0-0-0-0-|--2--2-2-2-2-|-0-0-0-0-0-0-|-2-2-2-2-2-2-2-|
E|-----------|-------------|-------------|---------------|

e|--------------|----------|
B|--------------|----------|
G|--------------|----------|
D|-9-9-9-9-9-9--|-2-2--4-4-|
A|-7-7-7-7-7-7--|-0-0--2-2-|
E|--------------|----------|

e|--------------------------|
B|--------------------------|
G|--------------------------|---------->Play 3 Times
D|--9-9-9-9--6-6----4-------|
A|--7-7-7-7--4-4----2-----2-|
E|-0--------------4----3b-0-|

e|-----------|------------|-------------|---------------|
B|-----------|------------|-------------|---------------|
G|-----------|------------|-------------|---------------|
D|-2-2-2-2-2-|-4--6-4-4-4-|-2-2-2-2-2-2-|-4-4-4-4-4-4-4-|
A|-0-0-0-0-0-|-2--2-2-2-2-|-0-0-0-0-0-0-|-2-2-2-2-2-2-2-|
E|-----------|------------|-------------|---------------|

e|-------------|----------|
B|-------------|----------|
G|-------------|----------|
D|-9-9-9-9-9-9-|-2-2--4-4-|
A|-7-7-7-7-7-7-|-0-0--2-2-|
E|-------------|----------|

e|---------------------------|
B|---------------------------|
G|---------------------------|
D|--9-9-9-9--6-6----4--------|
A|--7-7-7-7--4-4----2-----2--|
E|-0--------------4----3b-0--|

e|-------------|
B|-------------|
G|-2-----------|
D|-2-----------|
A|-0---2-0-----|
E|---------3-0-|

e|---------------------------------------------------|
B|---------------------------------------------------|
G|-----5--x-5-5--5--5-5------------------------------|
D|-5-5----x-5-5--5--5-5------------------------------|
A|-3------x-3-3--3--3-3------------------------------|
E|----------------------0--3-2-0---0-3-3-2-0-3-0-4-0-|

e|--------------------------------------------------|
B|--------------------------------------------------|
G|-----5--x-5-5--5--5-5/----------------------------|
D|-5-5----x-5-5--5--5-5/----------------------------|
A|-3------x-3-3--3--3-3/----------------------------|
E|-----------------------0--3-2-0---0-3-2-0-3-0-4-0-|

e|-------0h2--------2-2-------------|
B|-----3------3-----3-3-------------|
G|-2-2----------2---2-2-------------|
D|-0---------------------4--4-4-/---|
A|-----------------------4--4-4-/---|
E|-----------------------2--2-2-/---|

P.M.      P.M.      P.M.
------|   ------|    ------|
e|--------|----------|----------|-------------|-----------|
B|--------|----------|----------|-------------|-----------|
G|------2-|-------2--|-------2--|---2-2-2-2-4-|---4--4--4-|
D|-2-2--2-|-2-2-2-2--|-2-2-2-2--|-2-2-2-2-2-4-|---4--4--4-|
A|-0-0--0-|-0-0-0-0--|-0-0-0-0--|-0-0-0-0-0-2-|---2--2--2-|
E|--------|----------|----------|-------------|-----------|

e|---------------------------|
B|---------------------------|
G|---------------------------|---->Play 2 Times
D|--9-9-9-9--6-6-----4-------|
A|--7-7-7-7--4-4-----2-----2-|
E|-0---------------4----3b-0-|

e|-------------|------------|--------------|----------------|
B|-------------|------------|--------------|----------------|
G|-------------|------------|--------------|----------------|
D|--2--2-2-2-2-|-4--6-4-4-4-|-2-2-2-2-2--2-|-4-4-4-4--4-4-4-|
A|--0--0-0-0-0-|-2--2-2-2-2-|-0-0-0-0-0--0-|-2-2-2-2--2-2-2-|
E|-------------|------------|--------------|----------------|

e|-----------------------|
B|-----------------------|
G|-----------------------|
D|-9-9---9--9-9--9-9-9---|
A|-7-7---7--7-7--7-7-7---|
E|-----------------------|

e|---------------|----------------|-------------|
B|---------------|----------------|-------------|
G|-9-----2-----4-|--------2-----4-|--------2--4-|
D|-9-----2-----4-|--2-----2-----4-|--2-----2--4-|
A|-7-----0-----2-|--2-----0-----2-|--2-----0--2-|
E|---------------|--0-------------|--0----------|
  Let Ring.......................................

e|---|------------------|-----------------|-------------------|
B|---|------------------|-----------------|-------------------|
G|---|-6-6-6-6-6-6-6-6--|-----------------|-------------------|
D|-6-|-6-6-6-6-6-6-6-6--|-7-7-7-7-7-7-7-7-|-9-9-9-9-9-9-9-9-9-|
A|-6-|-4-4-4-4-4-4-4-4--|-7-7-7-7-7-7-7-7-|-9-9-9-9-9-9-9-9-9-|
E|-4-|------------------|-5-5-5-5-5-5-5-5-|-7-7-7-7-7-7-7-7-7-|

Solo

e|---------------------------------------------------------|
B|-9------9--9------9-9---9--------------------------------|
G|-11b13-----11b13--------11b13---11b13r11p9--11p9--8-11-9-|
D|---------------------------------------------------------|
A|---------------------------------------------------------|
E|---------------------------------------------------------|

P.M.   P.M.         P.M.   P.M.
------| ------|    -----|  -----|
e|-----------------|-----------------|
B|-----------------|-----------------|
G|-----9-------9---|-----6-------6---|--Rhythm Under Solo
D|-9-9-9-9-9-9-9-9-|-6-6-6-6-6-6-6-6-|
A|-7-7-7-7-7-7-7-7-|-4-4-4-4-4-4-4-4-|
E|-----------------|-----------------|


e|---------------------------------------------|
B|---------------------------------------------|
G|-9--11b13-12-11-12pb-12pb-12pb-11p9-11-9-8-9-|
D|---------------------------------------------|
A|---------------------------------------------|
E|---------------------------------------------|


P.M.     P.M.       P.M.    P.M.
-----|  ------|    -----|  -----|
e|-----------------|-----------------|
B|-----------------|-----------------|
G|-----9-------9---|-----6-------6---|
D|-9-9-9-9-9-9-9-9-|-6-6-6-6-6-6-6-6-|
A|-7-7-7-7-7-7-7-7-|-4-4-4-4-4-4-4-4-|
E|-----------------|-----------------|


e|-------------------------------------------------|
B|-------9-------9-9-------------12b14--12b14r12---|
G|-11b13---11b13-----11b13r11p9------------------9-|
D|-------------------------------------------------|
A|-------------------------------------------------|
E|-------------------------------------------------|


P.M      P.M.       P.M.   P.M.
-----|  -----|     ----|  -----|
e|-----------------|-----------------|
B|-----------------|-----------------|
G|-----9-------9---|-----6-------6---|
D|-9-9-9-9-9-9-9-9-|-6-6-6-6-6-6-6-6-|
A|-7-7-7-7-7-7-7-7-|-4-4-4-4-4-4-4-4-|
E|-----------------|-----------------|


e|-------------------|-------------------|-------------------|
B|-13b14-13-14-13-14-|-15b16-15-16-15-16-|-16b17-16-17-16-17-|
G|-------------------|-------------------|-------------------|
D|-------------------|-------------------|-------------------|
A|-------------------|-------------------|-------------------|
E|-------------------|-------------------|-------------------|

e|-------------------|-------|
B|-18b19-18-19-18-19-|-19b21-|
G|-------------------|-------|
D|-------------------|-------|
A|-------------------|-------|
E|-------------------|-------|

P.M      P.M.        P.M.  P.M.
-----|   ----|      ---|  -----|
e|-----------------|-----------------|
B|-----------------|-----------------|----->Play This Part 3 Times Under
G|-----------------|-----------------|       The Last Part Of the Solo
D|-----7-------7---|-----9-------9---|
A|-7-7-7-7-7-7-7-7-|-9-9-9-9-9-9-9-9-|
E|-5-5-5-5-5-5-5-5-|-7-7-7-7-7-7-7-7-|

Rhythm Plays This Last Part

e|---------------------------|
B|---------------------------|
G|---------------------------|
D|-9--9-9-9-9-9---2--2--4--4-|
A|-7--7-7-7-7-7---0--0--2--2-|
E|---------------------------|

e|--------------------------|
B|--------------------------|
G|--------------------------|----->Play This Twice
D|--9-9-9-9--6--6----4------|
A|--7-7-7-7--4--4----2----2-|
E|-0---------------4---3b-0-|

e|---------------|-------------|--------------|----------------|
B|---------------|-------------|--------------|----------------|
G|---------------|-------------|--------------|----------------|
D|--2--2--2-2-2--|-4--6--4-4-4-|-2-2-2-2-2--2-|-4-4-4-4--4-4-4-|
A|--0--0--0-0-0--|-2--2--2-2-2-|-0-0-0-0-0--0-|-2-2-2-2--2-2-2-|
E|---------------|-------------|--------------|----------------|

e|------------------------------------|
B|------------------------------------|
G|------------------------------------|-->Im Not Sure How To Space This So
D|-9-9--9-9--9---9---9-9--9-9--9--9-9-|   Just Hit The Chord Kind Of  
A|-7-7--7-7--7---7---7-7--7-7--7--7-7-|   Following Freddie's Voice.
E|------------------------------------|

e|---------------|--------------|
B|---------------|--------------|
G|---------------|-2------------|
D|-6-6-6-6--7--9-|-2------------|
A|-6-6-6-6--7--9-|-0---2-0------|
E|-4-4-4-4--5--7-|----------3-0-|


Legend
h=Hammer-On
p= Pull-Off
/ or \= Slide up or down the neck
r= Release bend
p.m.= Palm Mute
b= Bend





Comments


Popular Queen tabs & chords
Brighton Rock Bass Tabs
Jeaulosy Bass Tabs
We Will Rock You Chords
Back Chat Tabs
Friends Will Be Friends Tabs
Great King Rat 1 Tabs
Hammer To Fall Intro Tabs
Its A Hard Life Tabs
Love Of My Life 4 Tabs
Melancholy Blues Tabs


Song lyrics



↑ Back to top | Tablatures and chords are parodies/interpretations of the original songs. You may use it for private study, scholarship, research or language learning purposes only
© 2014 AZChords.com Contact us | Privacy policy | DMCA | Add/correct tabs | Request tabs | Top 50 tabs