» » »

Love Of My Life Tabs (ver.5)

Artists:  A B C D E F G H I J K L M N O P Q R S T U V W X Y Z # 

Love Of My Life Tabs (ver.5)

Queen
Rating:
0/5 (0 votes)

Hard to play? Try these video lessons and learn fast.
                this is the solo and the electric parts under the vocals

e----------------------|
b----------------------|
g----------------------|
d---------------3---7--|
a--8-7-5-3-3p2---------|
e----------------------|

e-----------------|-------------------------------|--------------|
b-----------------|---------------13-12h13--------|---8-10h11-11-|
g--14-12-14p12p10-|-12-14p12p10-------------5-4h5-|--------------|
d-----------------|-------------------------------|--------------|
a-----------------|-------------------------------|--------------|
e-----------------|-------------------------------|--------------|

e--10--------------13-|---------------13-|
b-----13p11-----------|--11h13--15p11----|
g---------------------|------------------|
d------------15-------|------------------|
a---------------------|------------------|
e---------------------|------------------|

gtr 1
e--/15-15-13h15---------------13-13-12h13-|
b-----------------------------------------|
g-----------------------------------------|
d-----------------------------------------|
a-----------------------------------------|
e-----------------------------------------|
|
|gtr 2
e-----------------------------17-17-15h17-|
b-----------------------------------------|
g-----------------------------------------|
d-----------------------------------------|
a-----------------------------------------|
e-----------------------------------------|
|
|gtr 3
e----------------8p6-8p6-8-10-10----------|-----------------------|
b-----------------------------------------|-----------------------|
g-----------------------------------------|--12p11h12-14-12h14h15-|
d-----------------------------------------|-----------------------|
a-----------------------------------------|-----------------------|
e-----------------------------------------|-----------------------|

as the A# of gtr 3 is being held the below is played

e------------------------|
b------------------------|
g------------------------|
d----3-2-0----3-----7----|
a--3--------3------------|
e------------------------|

e--------------------------------|
b--------------------------------|
g--------------------------------|
d-------7-----12--7/10-----------|
a--8-----------------------------|
e--------------------------------|


then i usually like to switch off the distortion and play this
(straight eighth notes)
e------------------------------1-|
b------------------------------1-|
g--------------------2------2----|
d---------3------3-------3-------|
a----0h3-----3-------------------|
e-1------------------------------|
            
Hard to play? Try these video lessons and learn fast. | Correct




comments powered by Disqus
↑ Back to top | Tablatures and chords are parodies/interpretations of the original songs. You may use it for private study, scholarship, research or language learning purposes only