>
 >
Love Of My Life 6

Love Of My Life 6 Guitar Tabs

Queen - Love Of My Life 6 chords, tabs, tablatures, lyrics

Guitar lessons | Add/correct | Request | Top 50 tabs Artists:  A B C D E F G H I J K L M N O P Q R S T U V W X Y Z 0-9

Love Of My Life 6 Guitar Tabs – Queen

CD, Sheet music, Poster

Do you like Love Of My Life 6? Share with your friends now
Bass TabsChordsChords v2Chords v3TabsTabs v2Tabs v3Tabs v4Tabs v5Tabs v6Tabs v7Ukulele
Love Of My Life.

This song is played live by Brian May using a 12 sting acoustic guitar.
I've been playing the Guitar since I was 16 and the only thing I can say is
try to learn the finger placements slowley. learn them like the back of 
your hand then try to build speed. I try to play about 4 hours a day but thats
because I started to play later than most.(OR I KEEP THINKING THAT I HAVE)
GOOD LUCK and remember the only way to become good is to stick with it!

e|----------------2---------------------2---------0-----------0-------------
B|-------3--2--3--------3------3--2--3------------0--------0--------3-------
G|----2--------------2---------4--------------4---0-----0--------0-----0----
D|-0---------------------------4-----------4------2--2----------------------
A|-------------------------4---2------------------2-------------------------
E|------------------------------------------------0-------------------------

e|---------------------------------2------------------2---------------------
B|-2-----3-----5\-----2---3--2--3------------3-2--4--------3---------------
G|-2----------------------2------------------4-----------------------4---4--
D|-2-----4-----5\-----2---0-----------0------4-----------4--------4------5--
A|-0--0-----0------0---------------------4---2-----------------0---------5--
E|-----------------------------------------------------------------------3--

e|----0-----------0----------------------------0---------------0------------
B|-3-----3-----3-----3--------------------------------2--------------------
G|----------2-----------1-----2-----4--/--7~~-----7---2--1--2--------2------
D|----------0-----------0-----4-----6--/--9~~---------2-----------2---------
A|----------------------2-----------------------------0---------------------
E|----------2-----------0--0-----0-----0----------0---------------------4---

e|--------------------------------2----------------------------------------
B|-------2-----2---------3--2-3------------------------------------2-0---
G|-------2--------2------4--------------4-----3---1-----2-----4\1--2----2-
D|----4-----4--------X---4-----------4-----4------2-----4-----6\2--2------
A|-----------------------2------------------------2-----------------0------
E|-2----------------------------------------------0--0-----0---------------

e|-2---0--(2)-------------2-------------------------------------------------
B|-2---2-------3----3-----------3------3-------------2---------2---3--2-----
G|-2---2-------2-2-----2---------------4------4------2------2------4-----4--
D|-5---5-------0--------------0---------4---4-----4---4---4---------5--------
A|-0---0----------------------------4---2------------------------------------
E|----------------------------------------------------2-------------3--------

e|-------------3-------2---------------0---------------------------------2---
B|-----3---3---3---3---3---3---3-------0--------3--2--------3---------3------
G|-4--2---2---4-------2-------4---4---0-----0-----2-----2---------2---------
D|-5---0---0---5-------0-------4-------2--2--------2-2---------0------------
A|-------------5---------------2-------2-----------0-------------------------
E|-3-----------3-----------------------0-------------------------------------





Comments


Popular Queen tabs & chords
Back Chat Live Bass Tabs
My Baby Does Me 3 Bass Tabs
One Vision 2 Bass Tabs
Its A Hard Life 2 Chords
Nevermore Chords
Too Much Love Will Kill You 1 Chords
Friends Will Be Friends 2 Tabs
Good Company Tabs
Stone Cold Crazy Tabs
We Will Rock You 2 Tabs


Song lyrics



↑ Back to top | Tablatures and chords are parodies/interpretations of the original songs. You may use it for private study, scholarship, research or language learning purposes only
© 2014 AZChords.com Contact us | Privacy policy | DMCA | Add/correct tabs | Request tabs | Top 50 tabs