» » »

Love Of My Life Tabs (ver.6)

Artists:  A B C D E F G H I J K L M N O P Q R S T U V W X Y Z # 

Love Of My Life Tabs (ver.6)

Queen
Rating:
0/5 (0 votes)

Hard to play? Try these video lessons and learn fast.
                                                LOVE OF MY LIFE 
                           As recorded by Troubleclef

Music by Queen
Arranged by Tony R. Clef (Troubleclef)

Gtr I (E A D G B E) - 'Untitled'

 Intro
  Q=77
 4/4
  Gtr I
  E E E E E E E  E    E  E  E  E  E E E S S   S S S S +Q            H
|-------------------|-3-(3)-2-(2)-0-----0---|-------0-(0)---------^-9-----|
|-2---3---2-3-3-(3)-|-----------------3---3-|-----2---------------^10-----|
|---2---2--------2--|----2-----2----2-------|---2-----------------^-9-----|
|-5---4---5---4-----|-2-----0---------------|----------2--2-(2)s7--(7)----|
|-------------------|-------------4---2-----|-0---------------------------|
|-------------------|-----------------------|-----------------------------|
  Q   Q   Q   Q       Q     Q     Q   Q       Q        S  S +S  S  +H


  E E E  E  E E E  E    E  E  T T T T E E  E   E   E     E E  E  E  E E E E
|-----3-(3)-2-3-3-(3)-|-7-(7)-5h7p5h7p5--------5--(5)-|-------0---------0----|
|-5-3----3---------3--|-----------------8-(8)------7\-|-^0-3-(3)-3----3---3--|
|-5---4-----5---4-----|----7--------------<7>-(7)-----|-^0----------2--------|
|---------------------|-5-----4-----------------------|------------^0--------|
|---------------------|-----------------7------0------|----------------------|
|---------------------|-------------------------------|-^3---------^2--------|
  Q   Q     Q   Q       Q     Q         Q      Q         H          H


                         Verse
                                |-3-|
   Q    Q    Q    Q        E  E S S S  E +Q   E E    E E E  E  +E  E E E
|-^0---^0---^0----------|-------------------------|----------------------|
|-^0---^0---^0---^3-----|-^2-^0-2h3p2-^5-(5)------|-^2---2-(2)-----2---2-|
|-^1---^2---^4---^4-----|-^2-^2-2-----^6-(6)----1-|-^2---2-(2)-(2)-2-----|
|-^2---^4---^6---^6-----|-^2-^2-2-----^7-(7)------|-^6-4----4--(4)---4---|
|-----------------------|-^0----------------------|----------------------|
|----0----0----0----(0)-|-------------------------|-^2-------------------|
   E Q    Q    Q    +E     H              Q   Q      W


   E E E   E +E  E +Q       Q    Q    Q    Q         E  E E  E +E  E +E  E
|----------------5-(5)---|-^0---^0---^0-----------|---------^2-(2)-0-(0)-2-|
|-^3-2-3/-^7-(7)---------|-^0---^0---^0---^3\-----|-^2-^0-2-^0-(0)---------|
|-^2------^7-(7)-------7-|-^1---^2---^4---^4------|-^2-^2-2-^0-(0)---------|
|-^4------^9-(9)----9----|-^2---^4---^6---^6------|-^2-^2-2----------------|
|-^2---------------------|------------------------|-^0-------0-(0)---------|
|------------------------|----0----0----0-----(0)-|------------------------|
   Q   E   E +Q     E  E    E Q    Q    Q     +E     E  E E  E +H


  H.              E  E   Q   E E  E  E  E E   E E E a E +E  E E E
|-2--------------------|--------------------|---------------------|
|-----------------3--2-|-3---3-0-^2-(2)---2-|-3-2-0---------------|
|------2-------2-(2)---|-----2---^2-(2)-2---|-0-----2h4-(4)-2-----|
|----4---4-(4)---------|---4-----^4--4------|-0---------------4-2-|
|-5--------------------|-2------------------|---------------------|
|----------------------|---------^2---------|-3----------2--------|
  E  E E E +E  E +Q      E E Q    H           H          H


                                                2/4
  E  E  E  E  E E   E  E     H     E  E  E  E    E E E E
|------------------^2p=0--|-^0-----------------|-------5-|
|------------^3----^3-(3)-|-^3-----2-(2)-5-(5)-|-----7---|
|----0--2----^2----^0-(0)-|-^0-----4--2/-6--7--|---7-----|
|-0-(0)----0-^4----^2-(2)-|-^2-----2-(2)-5-(5)-|-0-------|
|------------^2-----------|--------------------|---------|
|-3-----2-------0---------|-(0)----0-----------|---------|
  Q     Q.      Q.          +H     H


 4/4
  E E E E E E E E    E E E E  E E E E    Q    Q    Q    Q
|-7---5-----5-----|------0--------0---|-^0---^0---^0----------|
|---------8---7---|--0-3---3----3---3-|-^0---^0---^0---^3-----|
|---7---7-------7-|-^0--------2-------|-^1---^2---^4---^4-----|
|-5---4-------0---|----------^0-------|-^2---^4---^6---^6-----|
|---------7-------|-------------------|-----------------------|
|-----------------|-^3-------^2-------|----0----0----0----(0)-|
  Q   Q   Q   Q      H        H          E Q    Q    Q    +E


   E   E  E  E +Q.    E    E E E  E  +E  E E E    E E E   E +Q   Q
|-----------------------|----------------------|--------------------|
|-^2--^0-^2-^5-(5)------|-^2---2-(2)-----2---2-|-^3-2-3/-^7-(7)-----|
|-^2--^2-^2-^6-(6)----1-|-^2---2-(2)-(2)-2-----|-^2------^7-(7)--2--|
|-^2--^2-^2-^7-(7)------|-^6-4----4--(4)---4---|-^4------^9-(9)--4--|
|-^0--------------------|----------------------|-^2-----------------|
|-----------------------|-^2-------------------|--------------------|
   H.               Q      W                      Q   E   E +Q   Q


   Q    Q    Q    Q         E   E E  E +E  E +E  E   Q     Q    Q     E  E
|-^0---^0---^0-----------|----------^2-(2)-0-(0)-2-|-2---------------------|
|-^0---^0---^0---^3\-----|-^2--^0-2-^0-(0)---------|-------3----2-----0----|
|-^1---^2---^4---^4------|-^2--^2-2-^0-(0)---------|-------2-------------2-|
|-^2---^4---^6---^6------|-^2--^2-2----------------|----4----4-(4)-4-(4)---|
|------------------------|-^0--------0-(0)---------|-5-(5)-----------------|
|----0----0----0-----(0)-|-------------------------|-----------------------|
   E Q    Q    Q     +E     Q.       E +H            E  E  E E +E  E +Q


   E  E  E E  E  E  E E   E E E a E +E  E E E   E  E  E  E  E E   E  E
|-----------------------|---------------------|------------------^2p=0--|
|-^3-(3)-3-0-^2-(2)---2-|-3-2-0---------------|------------^3----^3-(3)-|
|-^2-(2)-2---^2-(2)-2---|-0-----2h4-(4)-2-----|----0--2----^2----^0-(0)-|
|-----4----4-----4------|-0---------------4-2-|-0-(0)----0-^4----^2-(2)-|
|-^2--------------------|---------------------|------------^2-----------|
|------------^2---------|-3----------2--------|-3-----2-------0---------|
   H          H           H          H          Q     Q.      Q.


                     2/4       4/4
   H      E  E  E E   E E E E   E E E E E E E  E
|-^0-----^5-(5)-----|-------5-|-------------------|
|-^3-----^2-(2)-5---|-----7---|-2---3---2-3-3-(3)-|
|-^0-----^4--2/-6-7-|---7-----|---2---2--------2--|
|-^2------------5---|-0-------|-5---4---5---4-----|
|---------0---------|---------|-------------------|
|-(0)---------------|---------|-------------------|
  +H      H                     Q   Q   Q   Q


  E  E  e E Q   Q     E E E E E E E E   E E E    E E  E  Q
|-5-(5)-3-2-3-------|-7---5---8---7---|-5---5tr3-3---10------|
|----3----------3---|-----------------|---3--------7----10---|
|-5-----4-----------|---7---7---7---7-|----------------------|
|-----------------0-|-5---4---7---5---|-4---2------0---------|
|-------------2-3---|-----------------|----------------------|
|-------------------|-----------------|-----------------10S9-|
  Q     q   E E E E   Q   Q   Q   Q     Q   Q      Q     E E


             Bridge
 2/4         4/4
  W            E E E E +E  E +E  E   E E E E +E  E +E  E
|-----------|----------------------|-----2---------------|
|-----------|-^3-3-3-3-(3)-------3-|-2-2---2-(2)---------|
|-----------|-^4-----------4-(4)---|-2-----------2-(2)---|
|-----------|-^4-------------------|-x-----------------4-|
|---------2-|--2-------------------|---------------------|
|-7p5-2h3---|----------------------|-2-------------------|
  E E S S E    W                     W


   E E E E +E  E +E  a E   Q   Q   Q   Q     E  E   E  E  +E   E  Q
|------------------------|----------------|--------------------------|
|------0-3-(3)-----------|----^3--^3--^2--|-^3-^3--^3-^3-^(3)-^3-^3--|
|--0-2-------------------|----^0--^2--^3--|-^2-^2--^2-^2-^(2)-^2-^2--|
|-^0-----------0-(0)-2h4-|-4--^2--^4--^2--|-^4-^4--^4-^4-^(4)-^4-^4--|
|------------------------|-5--^5--^5------|-^2-(2)-^2-^2-^(2)-^2-^2--|
|-^3---------------------|------------^2--|--------------------------|
   H        H              Q   Q   Q   Q     E +E   E  E  +E   E  Q


   E  E  E  E +E   E  E  E
|--------------------------|
|-^2-^2-^2-^2-(2)-(2)---^2-|
|-^2-^2-^2-^2-(2)--4--2-^2-|
|-^4-^4-^4-^x------4----^1-|
|--------------------------|
|-^2-^2-^2-^2-(2)----------|
   E  E  E  E +Q.        E


  +E  E E   S  S +E  T T S +E   E     Q   E  E +E   E +E  E
|----------------------------------|-----^0-^0-(0)-^0-(0)----|
|-(2)-0---^-0h=1-(1)-0h1p0-(0)-----|-----^3-^3-(3)-^3-(3)----|
|-(2)---2-^-2-------------------2--|-^0--^0-^0-(0)-^0-(0)-0--|
|-(1)-----^(1)-----------------(1)-|-^2----------------------|
|----------------------------------|-------------------------|
|----------------------------------|-^0----------------------|
  +Q.      +H                  +E     W


                               2/4      4/4
  E  E   E   E   E E  Q           H      E. T T E E E. T T Q
|--------------------^9-------|-^10----|-----------------------|
|-2-(2)-(3)-(3)/-5---^8-------|-^-7----|-5--7p5-----5--7p5-----|
|-0------0--(0)--2---^9-0-----|-^-7----|-0------7---0------7---|
|----2-------0-----0-^7-------|---0----|----------7------------|
|-0------2-------4---^0---9-7-|---0----|--------9----------9---|
|-----------------------------|--------|-----------------------|
  Q      Q       E E  S S S S     H      Q      Q   Q      Q


   Q     E.    S E E E S S   E  E  E  E  E E Q    E S S E E S S S S E E
|----------------5-----0---|-------0-(0)-5------|---2-3-3---5h7---5-3---|
|-10----10-----9-5---3-----|-2-(2)-----------5--|-5-------3-----7-----3-|
|-------11-------6---2---1-|-2-(2)---------6----|-5-----4---5-------4---|
|------------------7-------|----2----(2)--------|-----------------------|
|----12-----12-------2-----|-0------------------|-----------------------|
|-12----10-------9---------|--------------------|-----------------------|
   E  E  E   E   Q   Q       W                    Q     Q   Q       Q


   E. S  S  S S S E. S S S S S
|-10--5--5p=3p2---5--3-3-2-0---|
|--0----(0)-----3------------3-|
|--0-------------------2---4---|
|--------4---------------------|
|-----------------4------------|
|------------------------------|
   Q     Q        Q    E   E


  S  S  S s S S S S S S S S E E   E E E  E  E E E  E
|-----------------------7---5---|-----3-(3)-2-3-3-(3)-|
|-0-----2---3---5---7---------3-|-5-3----3---------3--|
|---(2)---2---2---x---7---7-----|-5---4-----5---4-----|
|-5-----5---4-------0---5---4---|---------------------|
|---------------4---------------|---------------------|
|-------------------------------|---------------------|
  E     E   E   E   E   E   Q     Q   Q     Q   Q


 3/4                      4/4
  S  S S S  E. S S S S S    S S S S S S S S S S S S S S S S
|------7---10--5-5p3p2---|-10---9---7---5-----------------5-|
|-8h10---8-^0----------3-|------------------------5-7---7---|
|----------^0------------|----7---7---7---7-7-6-7-----7-----|
|-9--------------4-------|------7---5---4---4---4-5-7-------|
|------------------------|--------------------7-------------|
|------------------------|----------------------------------|
  Q         Q    Q          E   E   E   E   S S S S Q


  S  S  S  S  S T T S S S S S S  S  S  S  S    Q   E.  S  E S S S  S S  S
|-7-----5-----3-5p3-2---8---7---12----11----|-12--12--11-12----------7-10/--|
|---------(3)---------x----------0-----0----|-----------------7h8-10--------|
|---(7)-------------------7---7----12----11-|-12--12--11-12-9---------------|
|-5-----4-----2-----0---7---5---------------|-------------------------------|
|-------------------------------------------|-------------------------------|
|-------------------------------------------|--0----------------------------|
  E     E     E     E   E   E    E     E       W


                           H.=H
                    3/4                 4/4
   Q   E.  S  H      S S E  E. S E S S   Q     +Q     H
|-14--14--13-14----|-------------------|-----------------------|
|------------------|-5s3s5-^5--5s7-5h7-|-7b8===(7)r------------|
|-14--14--13-14----|-------^4----------|-----------------------|
|--0---------------|-------^5----------|-----------------------|
|------------------|-------^4----------|------------0h5-4S2-0--|
|------------------|-------------------|-----------------------|
   W                                     Q.         E E E E E


 Outro
  Q=75
 4/4
   Q.   E  E  E  E E   E E E a E +E  E E E   E  E  E  E  E E   E  E
|--------------------|---------------------|------------------^2p=0--|
|-^3------^2-(2)---2-|-3-2-0---------------|------------^3----^3-(3)-|
|-^4----4-^2-(2)-2---|-0-----2h4-(4)-2-----|----0--2----^2----^0-(0)-|
|-^4------^4--4------|-0---------------4-2-|-0-(0)----0-^4----^2-(2)-|
|-^2-----------------|---------------------|------------^2-----------|
|---------^2---------|-3----------2--------|-3-----2-------0---------|
   H       H           H          H          Q     Q.      Q.


   H      E  E  E E   Q    E  E   E   E   Q    E E E a E +E  E E E
|-^0-----^5-(5)-----|--------^2-^-2--^5-^10--|---------------------|
|-^3-----^2-(2)-5---|-----^3-^3-^-3--^3-^-7--|-3p2---2h3-(3)-------|
|-^0-----^4--2/-6-7-|-----^2-^2-^-2--^2-^-7--|-4---4---------------|
|-^2------------5---|---4-^4-^4-^(4)-^0-^-0--|-4-------------4S9S4-|
|---------0---------|-5----------------------|-2-------------------|
|-(0)---------------|------------------------|---------------------|
  +H      H           E E  E  E  +E   E   Q    H          H


                      H.=H
   E E E a E +H       E. S Q   E. S E E   E  E  E  E   H
|-------------------|-------------------|------^2-^5-^10----*|
|-^2----------------|-3----3---3----3---|---^3-^3-^3-^-7----*|
|-^2-4-2-4S6-(6)----|-0----0---3----3---|---^2-^2-^2-^-7----*|
|-^2----------------|----2--------2---2-|---^4-^0-^0-^-0----*|
|-------------------|-------------------|-5-----------------*|
|--2----------------|-0------2-3--------|-------------------*|
   H          H       Q.     E H          Q     E  E   H


Duration Legend
---------------
W - whole; H - half; Q - quarter; E - 8th; S - 16th; T - 32nd; X - 64th; a - acciaccatura
+ - note tied to previous; . - note dotted; .. - note double dotted
Uncapitalized letters represent notes that are staccato (1/2 duration)
Irregular groupings are notated above the duration line
Duration letters will always appear directly above the note/fret number it represents the
duration for.  Duration letters with no fret number below them represent rests.  Multi-
bar rests are notated in the form Wxn, where n is the number of bars to rest for.  Low
melody durations appear below the staff

Tablature Legend
----------------
 h   - hammer-on
 p   - pull-off
 b   - bend
 pb  - pre-bend
 r   - bend release (if no number after the r, then release immediately)
 /\  - slide into or out of (from/to "nowhere")
 s   - legato slide
 S   - shift slide
  - natural harmonic
[n]  - artificial harmonic
n(n) - tapped harmonic
 ~   - vibrato
 tr  - trill
 T   - tap
 TP  - trem. picking
 PM  - palm muting
\n/  - tremolo bar dip; n = amount to dip
 \n  - tremolo bar down
 n/  - tremolo bar up
/n\  - tremolo bar inverted dip
 =   - hold bend; also acts as connecting device for hammers/pulls
 <>  - volume swell (louder/softer)
 x   - on rhythm slash represents muted slash
 o   - on rhythm slash represents single note slash

Misc Legend
-----------
 |  - bar
||  - double bar
||o - repeat start
o|| - repeat end
*|  - double bar (ending)
 :  - bar (freetime)
 $  - Segno
 &  - Coda
Tempo markers -  = BPM(8/16=s8/s16), where s8 = swing 8ths, s16 = swing 16ths


***************************************************************************************
***************************************************************************************
            
Hard to play? Try these video lessons and learn fast. | Correct




comments powered by Disqus
↑ Back to top | Tablatures and chords are parodies/interpretations of the original songs. You may use it for private study, scholarship, research or language learning purposes only