>
 >
Liar 1

Liar 1 Bass Tabs

Queen - Liar 1 chords, tabs, tablatures, lyrics

Guitar lessons | Add/correct | Request | Top 50 tabs Artists:  A B C D E F G H I J K L M N O P Q R S T U V W X Y Z 0-9

Liar 1 Bass Tabs – Queen

CD, Sheet music, Poster

Do you like Liar 1? Share with your friends now
Bass Tabs
Transcribed at: October 16, 2001 2:19 AM
**Standard Tuning**


v = Viberato
__= hold
/ = slide
h = hammer on
p = pull off
b = bend
r = release 



"16
guitar 1
E|----------------------------------------------------------------------------------------|
B|----------------------------------------------------------------------------------------|
G|----------------------------------------------------------------------------------------|
D|--5--5--5--5--5--5--5--5--5--5--5--5----------------------------------------------------|
A|---5--4--5--4--5--4--5--4--5--4--5--4-4-------------------------------------------------|
E|----------------------------------------------------------------------------------------|

Guitar 2
E|----------------------------------------------------------------------------------------|
B|----------------------------------------------------------------------------------------|
G|----------------------------------------------------------------------------------------|
D|----------------------------------------------------------------------------------------|
A|----------------------------------------------------------------------------------------|
E|----------------------------------------------------------------------------------------|



"42               
Guitar 1
E|-----------------------------------------------------------------|
B|-----------------------------------------------------------------|
G|-----------------------------------------------------------------|
D|------------------9v---9--8v---7--------6/4-----0-4-5--0-4___/13\|
A|---------------------9-------9---------------2-------------------|
E|-----------------------------------------------------------------|

Guitar 2
E|-14-14--------------------------1414141414-----------------------|
B|------14---------------------------------------------------------|
G|--------11---------------------------------11--------------------|
D|-----------------------------------------------------------------|
A|-----------------------------------------------------------------|
E|-----------------------------------------------------------------|



"55
Guitar 1
E|---------------------------------------------------------------------------------|
B|---------------------------------------------------------------------------------|
G|---------------------------------------------------------------------------------|
D|---------------------------------------------------------------------------------|
A|---------------------------------------------------------------------------------|
E|---------------------------------------------------------------------------------|

Guitar 2
E|-----------------14-15-17-15h17p15-14-15-14h15p14----14----15--------17----------|
B|17b19--14-15-17-----------------------------------17----17----18b20v----15-14-15v|
G|---------------------------------------------------------------------------------|
D|---------------------------------------------------------------------------------|
A|---------------------------------------------------------------------------------|
E|---------------------------------------------------------------------------------|


Guitar 1
E|----------------------------------------------------------------------------------------|
B|----------------------------------------------------------------------------------------|
G|----------------------------------------------------------------------------------------|
D|----------------------------------------------------------------------------------------|
A|----------------------------------------------------------------------------------------|
E|----------------------------------------------------------------------------------------|

Guitar 2
E|----------------------------------------------------------------------------------------|
B|14-15-17-b19_rbrp15-15-14-15-b17___r-14--15-14h15p14------------------------------------|
G|-----------------------------------------------------16-15------------------------------|
D|-----------------------------------------------------------17-16vv----------------------|
A|----------------------------------------------------------------------------------------|
E|----------------------------------------------------------------------------------------|


1:12
Guitar 1
...You've taken all my money and you want more            misguided old mule...
E|----------------------------------------------------------------------------------------|
B|--------------------------------------------------------10-10-10-10-10-10-10-10---------|
G|--------------------------------------------------------11-11-11-11-11-11-11-11---------|
D|---------------5---------------4--------------..4-4-4-4/12-12-12-12-12-12-12-12---------|
A|---------------3---------------4--------------..4-4-4-4/12-12-12-12-12-12-12-12---------|
E|---------------3---------------2--------------..2-2-2-2/10-10-10-10-10-10-10-10---------|

Guitar 2
E|----------------------------------------------------------------------------------------|
B|----------------------------------------------------------------------------------------|
G|----------------------------------------------------------------------------------------|
D|----------------------------------------------------------------------------------------|
A|----------------------------------------------------------------------------------------|
E|----------------------------------------------------------------------------------------|


1:31
Guitar 1
E|------------------------------------------------------------------------|
B|------------------------------------------------------------------------|
G|------------------------------------------------------------------------|
D|--9v---9--8v---7--------6/4-----0-4-5--0-4___/13\--------9v---9--8v---7-|
A|-----9-------9---------------2------------------------------9-------9---|
E|------------------------------------------------------------------------|

Guitar 2
E|-------14-14--------------------------------------14-14-----------------|
B|------------14-----------------------------------------14---------------|
G|--------------11-----------------------------------------11-------------|
D|------------------------------------------------------------------------|
A|------------------------------------------------------------------------|
E|------------------------------------------------------------------------|


1:41
Guitar 1
...You never had a heart of you own...kill joy, bad guy, big talking, small fry...
E|----------------------------------------------------------------------------------------|
B|----------------------------------------------------------------------------------------|
G|-----------------2------------3-----3---------3--------4------------4-------------------|
D|-----------------0------------4-----4---------4--------4------------4-------------------|
A|------------------------------4-----4---------4--------2------------2-------------------|
E|------------------------------2-----2---------2-----------------------------------------|

Guitar 2
E|----------------------------------------------------------------------------------------|
B|----------------------------------------------------------------------------------------|
G|----------------------------------------------------------------------------------------|
D|----------------------------------------------------------------------------------------|
A|----------------------------------------------------------------------------------------|
E|----------------------------------------------------------------------------------------|


1:53
Guitar 1				      
                                                      but now you can kiss.....my ass goodbye
E|---------------------------------2---------2------------------------------------------------|
B|-------2------------2------------3---------3-------------3----------------------------------|
G|-------2------------2------------2---------2-------------4----------------3-----------------|
D|-------2------------2------------0---------0-------------4----------------4-----------------|
A|-------0------------0-----------0---------0--------------2----------------4-----------------|
E|---3-2----------2-3----------2-3-------2-3--------------------------------2-----------------|

Guitar 2
E|--------------------------------------------------------------------------------------------|
B|--------------------------------------------------------------------------------------------|
G|--------------------------------------------------------------------------------------------|
D|--------------------------------------------------------------------------------------------|
A|--------------------------------------------------------------------------------------------|
E|--------------------------------------------------------------------------------------------|


2:05
Guitar 1
...Feel good, are you satisfied, do you feel like  suicide...
E|------------------------------------------------------------|
B|------------------------------------------------------------|
G|---------------------------------------4---------4----------|
D|--4------------------4-----------------4---------4----------|
A|--4------------------4-----------------2---------2----------|
E|--2------------------2--------------------------2-----------|

Guitar 2
E|------------------------------------------------------------|
B|------------------------------------------------------------|
G|------------------------------------------------------------|
D|------------------------------------------------------------|
A|------------------------------------------------------------|
E|------------------------------------------------------------|


2:13
Guitar 1
Is your conscience all right, does it plague you at night...do you feel good....feel good
E|----------------------------------------------------------------------------------------|
B|------2----------------------------2------------------------------3---------------------|
G|------2----------------------------2------------------------------2---------------------|
D|------2----------------------------2------------------------------0---------------------|
A|------0----------------------------0---------------------------0--------------0---------|
E|-----------------------------2--3-------------------------2--3-------------2-3----------|

Guitar 2
E|----------------------------------------------------------------------------------------|
B|----------------------------------------------------------------------------------------|
G|----------------------------------------------------------------------------------------|
D|----------------------------------------------------------------------------------------|
A|----------------------------------------------------------------------------------------|
E|----------------------------------------------------------------------------------------|


2:22
Guitar 1				 2:29
E|--------------------------------------|--------------------------------------------------|
B|--------------------------------------|--------------------------------------------------|
G|--------------------------------------|--------------------------------------------------|
D|--------------------------------------|--------------------------------------------------|
A|--------------------------------------|--------------------------------------------------|
E|--------------------------------------|--------------------------------------------------|

Guitar 2                                 2:29
E|--------------------------------------|---------------------------------------------------2--|
B|---trem---5-4-3-2---------------------|----3---------------------------------------------3-3-|
G|---6vvv----------5-4-2----------------|----2-----2----------------------2---------------2----|
D|----------------------4-2------trem---|--9\0---4-----0-2-----------0--4-----0-2--------0-----|
A|-------------------------4-3-2-0vvv---|------------4-----2---0---4--------4-----2--0--4------|
E|--------------------------------------|------------------------------------------------------|

+|-------------------------------------------------2----------------------------------------------------|
+|-------------------------------------------------3------3-5/7--------------7--------------------------|
+|---2---------------------------------------------2------------7-9-b11-9b11---9p7-7-\2------7--7-9-b11-|
+|-4------0--2-------------------------------------0--4h5-------------------------7-------7___-7--------|
+|-----4-------2---4-5-0---2-4-----0-2-------------------------------------------------4/5--------------|
+|-----------------------------3-------0-2-220-2--------------------------------------------------------|

+|----------7---------------------------trem----------------------------------------------------|
+|-----11----11-------------------------7v------------------------------------------------------|
+|---------------7--10r9p7-9p7-----7--9-----------7-9b11--vr9--7--9v----------------------------|
+|-2/7-------------------------9p7--------------7----------------------7h9-9p7------------------|
+|-----------------------------------------------------------------------------9p7-9------------|
+|----------------------------------------------------------------------------------------------|


2:51
Guitar 1
...You're just an overgrown school boy        let me tan your hide
E|----------------------------------------------------------------------------------------|
B|----------------------------------------------------------------------------------------|
G|----------------------------------------------------------------------------------------|
D|----------------------------------------5----3-----------------------trem---------------|
A|----------------------------------------5--------5--3---1---2--------0------------------|
E|----------------------------------------3-------------------4---------------------------|

Guitar 2
E|----------------------------------------------------------------------------------------|
B|----------------------------------------------------------------------------------------|
G|----------------------------------------------------------------------------------------|
D|----------------------------------------------------------------------------------------|
A|----------------------------------------------------------------------------------------|
E|----------------------------------------------------------------------------------------|


3:00
Guitar 1
...Dog with disease                ...was the fin on your back part of the deal (shark!)
E|--10-10-10-10-10-10-10-10---------------------------------------------------------------|
B|--10-10-10-10-10-10-10-10---------------------------------------------------------------|
G|--11-11-11-11-11-11-11-11---------------------------------------------------------------|
D|--12-12-12-12-12-12-12-12---------------------------------------------------------------|
A|--12-12-12-12-12-12-12-12---------------------------------------------------------------|
E|--10-10-10-10-10-10-10-10---------------------------------------------------------------|

Guitar 2
E|----------------------------------------------------------------------------------------|
B|----------------------------------------------------------------------------------------|
G|----------------------------------------------------------------------------------------|
D|----------------------------------------------------------------------------------------|
A|----------------------------------------------------------------------------------------|
E|----------------------------------------------------------------------------------------|


3:12
Guitar 1
E|-----------------------------------------------------------------------------|  
B|-----------------------------------------------------------------------------|    
G|-----------------------------------------------------------------------------|
D|--9v---9--8v---7--------6/4-----0-4-5--0-4___/13\--------9v---9----8v------7-|
A|-----9-------9---------------2------------------------------9---------9------|
E|-----------------------------------------------------------------------------|


Guitar 2
E|--------------------19b21r19--------------------------------14141414141414---|
B|------------------15---------------------------------------------------------|
G|----------------16--------------------------------------------------------11-|
D|-----------------------------------------------------------------------------|
A|-----------------------------------------------------------------------------|
E|-----------------------------------------------------------------------------|


3:27
Guitar 1
...Insane, should be put inside, you're a sewer rat decaying in a cesspool of pride 
E|---------------------------------------------------------------------------------|
B|---------------------------------------------------------------------------------|
G|----------------------------------------4-----------------------4----------------|
D|---4-------------------4----------------4-----------------------4----------------|
A|---4-------------------4----------------2-----------------------2----------------|
E|---2-------------------2---------------------------------------------------------|

Guitar 2
E|---------------------------------------------------------------------------------|
B|---------------------------------------------------------------------------------|
G|---------------------------------------------------------------------------------|
D|---------------------------------------------------------------------------------|
A|---------------------------------------------------------------------------------|
E|---------------------------------------------------------------------------------|


3:34
Guitar 1
E|----------------------------------------------------------------------------------------|
B|------2----------------------------2------------------------------3---------------------|
G|------2----------------------------2------------------------------2---------------------|
D|------2----------------------------2------------------------------0---------------------|
A|------0----------------------------0---------------------------0--------------0---------|
E|-----------------------------2--3-------------------------2--3-------------2-3----------|





Comments


Popular Queen tabs & chords
Delilah 2 Bass Tabs
Dragon Attack Bass Tabs
Father To Son Chords
No One But You 1 Chords
Hammer To Fall (Solo) Tabs
Seaside Rendezvous 1 Tabs
Crazy Little Thing Called Love Ukulele
In The Lap Of The Gods Ukulele
Spread Your Wings Ukulele
We Are The Champions Ukulele


Song lyrics



↑ Back to top | Tablatures and chords are parodies/interpretations of the original songs. You may use it for private study, scholarship, research or language learning purposes only
© 2014 AZChords.com Contact us | Privacy policy | DMCA | Add/correct tabs | Request tabs | Top 50 tabs