» » »

Queen, Keep Yourself Alive Bass tabs (ver.1)

Artists:  A B C D E F G H I J K L M N O P Q R S T U V W X Y Z # 

Keep Yourself Alive Bass tabs (ver.1)

Queen Tabs
 Rating:
4/5 (4 votes)
Keep Yourself Alive lessons Tabs too difficult? Try these video lessons and learn fast
                KEEP YOURSELF ALIVE BY QUEEN
134Bpm moderately fast
G,D,A,E tuneing


  guitar intro

|--------------------------------------------------------------------------|
|---------------------------------------------3-3-3-1/3-3-3-1h3--3--1h3--3-|
|------------------------------------7/5---3-------------------------------|
|-------5555-55--5--5-X-5-5-5--5--5-5----3---------------------------------|

  play the following in all 4 verses

|------------------------------2--2-3--------------------------------6--|
|-1h3-3-1h3-3---1h3--3--1h3--3--------0-1-3--3------------------6-----6-|
|------------1-1------------------------------------3--3--3--33--4-4----|
|-----------------------------------------------------------------------|


      Chorus
|---------------------------------------------------------------------------|
|-----6--2--3--4--5-2-------------------------------------------------------|
|---6---6-------------3-----------5-5-5---5--5--------5--4--2---------5-5-5-|
|4-4-------------------5-5-5--5--5-----33-------5-5-5---------3-5-5-5-------|

  interlude

|---------------|---------------------------------|
|---------------|---------------------------------|
|---------------|----7777------------------7777---|
|---------------|--------5-==------------------5--|

|--------------------------------------------------------------------------|
|---------------------------------------------------0-1-2-3-1h3--3--1h3--3-|
|----------------------------------------------3-5-------------------------|
|-5--5--5--5--5--5--5--5--5--5--5-"10MoreTimes-----------------------------|

|----------------|
|1h3--3--1h3--3--|   go back to the 3rd verse
|----------------|
|----------------|


   drum solo

  then guitar solo
|-------------------------------------------------------------------------|
|3--3--3----3--3------3--2--0-------------3---------------------3--2--0---|
|--------11------3--3---------1-3-3-3-------------11------3--3----------1-|
|-------------------------------------1-1---1-1-1----1--1-----------------|
		chorus
|---------------------------------------------------------------------|
|-------3-------------------------------------------------------------|
|3-3-3-----0--5--5--5-----5--5---------5--4--2------------5-5-5-7~~~~-|
|---------------------33--------5-5-5-----------3--5-5-5--------------|

outro
|------------------------11-12-13-14--------------------------------------|
|-------------11-12-13-14-------------------------------------------------|
|-----11-12-14-----------------------5--5--5---5--5---5-4-2--------5-5-5--|
|12-14------------------------------------------33---5-5-5-------3--5-5-5-|

|-------------------------------------------------------------------------|
|3-3-3----3--3-------3--2--0-----------3-3-3------------------------------|
|------11-------3--3----------1-3-3-3--------5--5--5----5--5-----5--4--2--|
|----------------------------------------------------33-----5-5-5-------3-|

|-----------------------------4---3--1--------------------------------------|
|--------------------------------------2------------------------------------|
|------5-5-5--2--2--2-----2--------------2-2-2---2---2-02--2-0-2--2-02--2-0-|
|5-5-5-----------------0=---2--22--------------2---2------------------------|

|---------------------------------------|
|---------------------------------------|
|2--2-02--2-0-2--2-02--2-0-2--2-02--2-0-|
|---------------------------------------|

Fade Out
            
Submit corrections

comments powered by Disqus
↑ Back to top | Queen Bass for Keep Yourself Alive. Lyrics for acoustic guitar and electric guitar. Tablatures and chords are parodies/interpretations of the original songs. You may use it for private study, scholarship, research or language learning purposes only