» » »

Queen, I Want To Break Free Bass tabs (ver.2)

Artists:  A B C D E F G H I J K L M N O P Q R S T U V W X Y Z # 

I Want To Break Free Bass tabs (ver.2)

Queen Tabs
 Rating:
4/5 (4 votes)
I Want To Break Free lessons Tabs too difficult? Try these video lessons and learn fast
1
                +++++++++++++++++++++++++++++++
| Queen- I Want To Break Free |
+++++++++++++++++++++++++++++++


"I've fallen in love..."



Tuning: Standard EADG


Verse
"I want to break free..."
1.
G|----------------------------------------------------------------------------------------|
D|-2-2222-22--2-2222-22--2-2222-22--2-2222-22--2-2222-22--2-2222-22-----------------------|
A|-------------------------------------------------------------------0-0000-00--0-0000-00-|
E|----------------------------------------------------------------------------------------|

"I've got to break free..."
2.
G|-----------------------------------------------------------------|
D|-2-2222-22--2-2222-22------------------------2-2222-22-----------|
A|-----------------------2-2222-22--0-0000-00-----------2----------|
E|-------------------------------------------------------0x--------|

"I've fallen in love..."
3.
G|----------------------------------------------------------------------------------------|
D|-2-2222-22--2-2222-22--2-2222-22--2-2222-22------------------------2-2222-22--2-2222-22-|
A|---------------------------------------------0-0000-00--0-0000-00-----------------------|
E|----------------------------------------------------------------------------------------|

"God knows..."
4.
G|-----------------------------------------77----|
D|-----------------77----------------22-66----77-|
A|--2-2222-22--0-00---00-------------------------|
E|------------------------0-0000-00--------------|

Chorus
"Its strage, but its true..."
5.
G|-------------------------------------------------------------------------|
D|-------------------------------------------------------------------------|
A|-22222222-00000000-22222222-00000000-44444444----------00002222-44444422-|
E|----------------------------------------------22222222-------------------|

"Oh I want to be free..."
6.
G|-----------------------------------------------|
D|-----------------------------------------------|
A|-00002222-44444422-00002222--------------------|
E|----------------------------00000000-0x--------|

Bridge
7.
G|----------------------------------------------------------------------------------------|
D|-2-2222-22--2-2222-22--2-2222-22--2-2222-22------------------------2-2222-22--2-2222-22-|
A|---------------------------------------------0-0000-00--0-0000-00-----------------------|
E|----------------------------------------------------------------------------------------|

8.
G|--------------------------------------------|
D|-----------------------2-2222-22------------|
A|-2-2222-22--0-0000-00-----------------------|
E|----------------------------------0x--------|

9.
G|----------------------------------------------------------------------------------------|
D|-2-2222-22--2-2222-22--2-2222-22--2-2222-22------------------------2-2222-22--2-2222-22-|
A|---------------------------------------------0-0000-00--0-0000-00-----------------------|
E|----------------------------------------------------------------------------------------|

10.
G|--4-4-4-4--2-2-2-2-------------------77-----4-4-4-4--2-2-2-2----------------------|
D|--------------------2-2222-22--22-66----77--------------------2-2222-22-----------|
A|-2-2-2-2--0-0-0-0--------------------------2-2-2-2--0-0-0-0------------2----------|
E|------------------------------------------------------------------------0x--------|

Verse
"But life still goes on..."
11.
G|----------------------------------------------------------------------------------------|
D|-2-2222-22--2-2222-22--2-2222-22--2-2222-22--7-7777-77--7-7777-77--2-2222-22--2-2222-22-|
A|----------------------------------------------------------------------------------------|
E|----------------------------------------------------------------------------------------|

"God knows..."
12.
G|--4-4-4-4--2-2-2-2-------------------77-----4-4-4-4--2-2-2-2----------------------|
D|--------------------2-2222-22--22-66----77--------------------2-2222-22-----------|
A|-2-2-2-2--0-0-0-0--------------------------2-2-2-2--0-0-0-0------------2----------|
E|------------------------------------------------------------------------0x--------|

Outro
"I've got to break free..."
13.
G|----------------------------------------------------------------------------------------|
D|-2-2222-22--2-2222-22--2-2222-22--2-2222-22--2-2222-22--2-2222-22--2-2222-22--2-2222-22-|
A|-------------------------------------------------------------------0-0000-00--0-0000-00-|
E|----------------------------------------------------------------------------------------|


Please rate thanks!!


Lyrics:

I want to break free
I want to break free
I want to break free from your lies
You're so self satisfied I don't need you
I've got to break free
God knows, God knows I want to break free.

I've fallen in love
I've fallen in love for the first time

And this time I know it's for real
I've fallen in love, yeah
God knows, God knows I've fallen in love.

It's strange but it's true
I can't get over the way you love me like you do
But I have to be sure
When I walk out that door
Oh how I want to be free, baby
Oh how I want to be free,
Oh how I want to break free.

But life still goes on
I can't get used to, living without, living without,
Living without you by my side
I don't want to live alone, hey
God knows, got to make it on my own
So baby can't you see
I've got to break free.

I've got to break free
I want to break free, yeah
I want, I want, I want, I want to break free.



+++++++++++++++++++++++++++++++++
| Raileff                       |
+++++++++++++++++++++++++++++++++
            
Submit corrections

comments powered by Disqus
↑ Back to top | Queen Bass for I Want To Break Free. Lyrics for acoustic guitar and electric guitar. 1 Tablatures and chords are parodies/interpretations of the original songs. You may use it for private study, scholarship, research or language learning purposes only