» » »

Queen, I Want It All Tabs (ver.2)

Artists:  A B C D E F G H I J K L M N O P Q R S T U V W X Y Z # 

I Want It All Tabs (ver.2)

Queen Tabs
 Rating:
4/5 (4 votes)
I Want It All lessons Tabs too difficult? Try these video lessons and learn fast
1
                I WANT IT ALL
Words and music by Queen (Brian May)



(SOLO Guitar only)

|---------------------------------------10p7h10p7---------------|
|-10b12r10b12r10-12r10p7-10p7-10p7h10p7-----------10p7-10b12v---|
|---------------------------------------------------------------|
|---------------------------------------------------------------|
|---------------------------------------------------------------|
|---------------------------------------------------------------|

|---------------------------|
|-10-7----------------------|
|------9b10__r9--7-9-7h9p7--|
|---------------------------|
|---------------------------|
|---------------------------|

-17b19_r--17---14-----------------------17-----------------------------------
------------------17b19---17v-----17b19-----19r17p15-17b19__r17p15-----------
...

|--------------------7-7------------------------------------------|
|-9b_10-------7-10p7-----10b12---10b12___r10p7--------------------|
|-9b_11__rb11----------------------------------10r9p7-6-7---9-----|
|-------------------------------------------------------------7---|
|-----------------------------------------------------------------|
|-----------------------------------------------------------------|

|----------____-7----------------|
|-10b__12--7h10---7--------------|
|-------------------10-9-7-------|
|--------------------------9-7---|
|--------------------------------|
|--------------------------------|

|--------------------10b12---10v-----7----7-____------------___----------|
|--------------------------------------10---7h10-b12r10b12__rbrp7--------|
|-----7-----------------------------------------------------------10p9p7\|
|-9-------9p7-9----7-----------------------------------------------------|
|------------------------------------------------------------------------|
|------------------------------------------------------------------------|

|----------_______-17p14---17p14----------------------------------------|
|----------17p15--------14------14-17b19--17v-----17b19____r17p15-------|
|----14-16------14------------------------------------------------16vv--|
|/16--------------------------------------------------------------------|
|-----------------------------------------------------------------------|
|-----------------------------------------------------------------------|

..
|-----------------------------------------------------------|
|...15p14-------15p14-------17b19vv-------------------------|
|---------16p14-------16p14---------------------------------|
|--------------------------------------16__r14p12-----------|
|-------------------------------------------------14---14---|
|-----------------------------------------------------------|

|--------------------------------------------------------------|
|--------------------------------------------------------------|
|------------------------------------------________------------|
|------------------------------12----12-14b16r14p12-14---------|
|------------------------12-------14---------------------14v---|
|-*-14-12p10-12p10-12/14----14---------------------------------|

|-------------------------2-1-0----------------------------------------
|
|-15b17---15b17---r15v----------3-0---3p2-----3p2-----3p2-----3p2-----|
|-----------------------------------2-----4p2-----4p2-----4p2-----4p2-|
|---------------------------------------------------------------------|
|---------------------------------------------------------------------|
|---------------------------------------------------------------------|

|------------------------------------------------------|
|-5b7vvvr5p3-5p3\2-3p2---------------------------------|
|----------------------4-x-4p2---2---------------------|
|------------------------------4---4p2p0-2---2p0-------|
|------------------------------------------------2-2---|
|------------------------------------------------------|

|----------------------------------------------|
|-15b17____r15vv---17b19__r17p15---------------|
|--------------------------------16---17rbr16--|
|----------------------------------------------|
|----------------------------------------------|
|----------------------------------------------|

|------------------------------------------------------|
|-17b19---17b19---17b19---17b19---17b19__r17p15--------|
|-----------------------------------------------16_v---|
|------------------------------------------------------|
|------------------------------------------------------|
|------------------------------------------------------|

|----------------10---10...-10/12---12---12------|
|-13b15-13-13b15---b15-----------b17--b17--b17---|
|------------------------------------------------|
|------------------------------------------------|
|------------------------------------------------|
|------------------------------------------------|

|-------------------------------------------------|
|-19r17p15-14-15p14-------------------------------|
|-------------------16p14-16p14----14-------------|
|-------------------------------16----16\14-12----|
|----------------------------------------------14-|
|-------------------------------------------------|

...
|---------------------8-7--5---5---------------------------------|
|-------5h8p5-8b10-----------8-----------------------------------|
|-7b9----------------------------7b9---7---5-7p5-4---------------|
|--------------------------------------------------7-5---3---5---|
|----------------------------------------------------------------|
|----------------------------------------------------------------|
...
|-17b19------17---14------------------------------------------|
|----------------------18r_17_p15--17--15--14--15p14h15p14----|
|----------------------------------------------------------16-|
|-------------------------------------------------------------|
|-------------------------------------------------------------|
|-------------------------------------------------------------|

|-----------------------------------------------|
|-14--------------------------------------------|
|----16-14h16p14----14--------------------------|
|----------------16----16-15-14-13--14--12___\--|
|---------------------------------14--14--------|


Last Modification: 21 februar, 1998
            
Submit corrections

comments powered by Disqus
↑ Back to top | Queen Tabs for I Want It All. Lyrics for acoustic guitar and electric guitar. 1 Tablatures and chords are parodies/interpretations of the original songs. You may use it for private study, scholarship, research or language learning purposes only