>
 >
Its Late

Its Late Bass Tabs

Queen - Its Late chords, tabs, tablatures, lyrics

Guitar lessons | Add/correct | Request | Top 50 tabs Artists:  A B C D E F G H I J K L M N O P Q R S T U V W X Y Z 0-9

Its Late Bass Tabs – Queen

CD, Sheet music, Poster

Do you like Its Late? Share with your friends now
Bass TabsChordsUkulele
+++++++++++++++++++
| Queen- Its Late |
+++++++++++++++++++


"You tell me you're leaving, and I just cant believe its true..."


Tuning: EADG



Pre-Chorus
1.
G|--------------------------|
D|--------------------------|
A|-0x---0x---0x---0x---0x---|
E|--------------------------|

Chorus
"Its late but Im bleeding deep inside..."
2.
G|-----------------------------------------------------------------|
D|-----------------------------------------------------------------|
A|-7-------------------0-0-0-0-0-0-7-------------------0-0-0-0-0-0-|
E|---0~--0-0-0-0-0-0-0---------------0~--0-0-0-0-0-0-0-------------|

"Too late even now the feeling seems to steal away..."
3.
G|-------------------------------------------------------------------|
D|-------------7-7-7-7-------------------------------------1------6--|
A|-7-5~--5-5-5---------7-7-7-7-0-0-7-5~--5-5-5-4-4-4-4-2-22-2-7-77-7-|
E|-------------------------------------------------------------------|

"Its late, its late, its late..."
4.
G|---------------------------------|
D|----------------/7-7-7-7-2-2-2-2-|
A|-0-0-0-0-0-0-0-0-----------------|
E|---------------------------------|

Outro
5.
G|------------------11~\--------------------------|
D|------------------------------------------------|
A|-0~--0~-----0-0~---------0~--0~-----0-0~--------|
E|---------0h2-2-------------------0h2-2----2~----|

Verse
"The way you love me..."
6.
G|------------------11~\--------------------20~---------------------11~\--------------------------|
D|------------------------------------------------------------------------------------------------|
A|-0~--0~-----0-0~---------0~--0~-----0-0~---------0~--0~-----0-0~---------0~--0~-----0-0~--------|
E|---------0h2-2-------------------0h2-2-------------------0h2-2-------------------0h2-2----2~----|

"Now you tell me you're leaving..."
7.
G|--------------11-10~---------------------------------|
D|------------------------------------2~-0~--00~---0-0-|
A|-0~--0~----------------------------------------------|
E|-----------9~-----------2~--2~----0~-----------------|

"You know that I can love you..."
8.
G|------------------11~\--------------------------------------------11~--13~-|
D|---------------------------------------------------------------------------|
A|-0~--0~-----0-0~---------0~--0~-----0-0~---------0~--0~-----0-0~-----------|
E|---------0h2-2-------------------0h2-2----2~-------------0h2-2-------------|

Pre-Chorus
9.
G|--------------------------|
D|--------------------------|
A|-0x---0x---0x---0x---0x---|
E|--------------------------|

Chorus
"Its late but its driving me so mad..."
10.
G|-----------9-9-9-9-9-----------------------9-9-9-9-9-------------|
D|-----------------------------------------------------------------|
A|-7-------------------0-0-0-0-0-0-7-------------------0-0-0-0-0-0-|
E|---0~--0-0-------------------------0~--0-0-----------------------|

"Too late save our love you cant turn out the lights..."
11.
G|-------------------------------------------------------------------|
D|-------------7-7-7-7-------------------------------------1------6--|
A|-7-5~--5-5-5---------7-7-7-7-0-0-7-5~--5-5-5-4-4-4-4-2-22-2-7-77-7-|
E|-------------------------------------------------------------------|

"Its late, its late, its late..."
12.
G|---------------------------------|
D|----------------/7-7-7-7-2-2-2-2-|
A|-0-0-0-0-0-0-0-0-----------------|
E|---------------------------------|

Outro
13.
G|------------------11~\----|
D|--------------------------|
A|-0~--0~-----0-0~----------|
E|---------0h2-2------------|

Bridge
"I've been so long..."
14.
G|-----9-9-----------------------------------------------------------|
D|-------------7~--------------7~--------------7~--------------------|
A|-7-7-----7-7-----7-7-7-7-7-7-----7-7-7-7-7-7-----7-7-7-7-75424-0~--|
E|-------------------------------------------------------------------|

"I aint got long..."
15.
G|-----------------------------------------------------9999-----9999-|
D|-------------7~--------------7~------------------------------------|
A|-7-7-7-7-7-7-----7-7-7-7-7-7-----7-7-7-7-7-7-7-7-7-7------7-7------|
E|-------------------------------------------------------------------|

16.
G|-----------------------------------------------------------------------------------------|
D|-----------------------------------------------------------------------------------------|
A|------------------2~----------------9\-------2~-------------------2~---------------------|
E|-22--222--2-2-2-2-------22--2-2-2-2----22222-------2-2-2---22-2-2-------2-2-2-2-2-2-3333-|

17.
G|-----------------------------------------------------------------|
D|-----------------------------------------------------------------|
A|-3-3-3-3-3-3-3-3-3-3-3-3-3-3-3-3-3-3-3-3-3-3-3-3-3-3-3-3-3-3-3-3-|
E|-----------------------------------------------------------------|

18.
G|-----------------------------------------------------------------------5----|
D|---2-5-2----2-5-2~----2-5-2----2-5-2~----2-5-2----2-5-2~----2-5-2----2---2~-|
A|-33-3-3--3-3-3-3----33-3-3--3-3-3-3----33-3-3--3-3-3-3----33-3-3--3-3-3-3---|--x2
E|----------------------------------------------------------------------------|

"Too late..."
19.
G|---------------------------------2---------------------------------------------------|
D|--------------5-----------------2--2~------------------------------------------------|
A|-------------5--5~--00000000-000-------22222222-22222222-77777777-77777777-7x--------|
E|-33333333-333------------------------------------------------------------------------|

Verse
"You're staring at me..."
20.
G|------------------11~\--------------------------------------------11~\--------------------------|
D|------------------------------------------------------------------------------------------------|
A|-0~--0~-----0-0~---------0~--0~-----0-0~---------0~--0~-----0-0~---------0~--0~-----0-0~--------|
E|---------0h2-2-------------------0h2-2----2~-------------0h2-2-------------------0h2-2----2~----|

"If I take you tonight..."
21.
G|--------------11-10~---------------------------------|
D|------------------------------------2~-0~--00~---0-0-|
A|-0~--0~----------------------------------------------|
E|-----------9~-----------2~--2~----0~-----------------|

"Oh you make me wonder..."
22.
G|-------------------------|
D|-------------------------|
A|-0~--0~-----0-0~--7~-----|
E|---------0h2-2-----------|

Pre-Chorus
23.
G|-----------|
D|-----------|
A|-0x---0x---|
E|-----------|

Chorus
"Its late but its time to set me free..."
24.
G|-----------9-9-9-9-9-14-14-14-14-14-14-----------9-9-9-9-9-14-14-14-14-14-14-|
D|-----------------------------------------------------------------------------|
A|-7-------------------------------------7-------------------------------------|
E|---0~--0-0-------------------------------0~--0-0-----------------------------|

"Too late so let the fire take our bodies tonight..."
25.
G|-------------------------------------------------------------------|
D|-------------7-7-7-7-------------------------------------1------6--|
A|-7-5~--5-5-5---------7-7-7-7-0-0-7-5~--5-5-5-4-4-4-4-2-22-2-7-77-7-|
E|-------------------------------------------------------------------|

"Its late, its late, its late..."
26.
G|-----------------7-7-7-7-------------------------------------------|
D|-7-7-7-7-7-7-7-7-----------------2-2-2-2---------------------------|
A|-------------------------2-2-2-2---------4-4-4-4-------------------|
E|-------------------------------------------------2~----------------|

Outro
27.
G|----------------------------------------------------------|
D|----------------------------------------------------------|
A|-------------------------------------------------------2/-|
E|----------------------------------------------------------|

28.
G|-------------------------------------------------------------------------|
D|-------------------------------------------------------------------------|
A|-77777777-77774444-00000000-00004444-77777777-77774444-00000000-00405060-|
E|-------------------------------------------------------------------------|

29.
G|-------------------------------------------------------|
D|-------------------------------------------------------|
A|-77777777-77774444-00000000-00405060-77777777-77774444-|
E|-------------------------------------------------------|

30.
G|-----------------------------------------------14~------------|
D|-----------------------------------------14-14------1414------|
A|-0x--0x--0x--0x--0x--0x--0x--0x----0~--------------------12~--|
E|--------------------------------------------------------------|


Please rate thanks!!!


Lyrics:

You say you love me
And I hardly know your name
And if I say I love you in the candlelight
There's no one but myself to blame
But there's something inside
That's turning my mind away
Oh how I could love you
If I could let you stay

It's late - but I'm bleeding deep inside
It's late - is it just my sickly pride?
Too late - even now the feeling seems to steal away
So late - though I'm crying I can't help but hear you say
It's late it's late it's late
But not too late

The way you love me
Is the sweetest love around
But after all this time
The more I'm trying
The more I seem to let you down
Now you tell me you're leaving
And I just can't believe it's true
Oh you know that I can love you
Though I know I can't be true
Oh you made me love you
Don't tell me that we're through

It's late - but it's driving me so mad
It's late - yes I know but don't try to tell me that it's
Too late - save our love you can't turn out the lights
So late - I've been wrong but I'll learn to be right
It's late it's late it's late
But not too late

I've been so long
You've been so long
We've been so long tryin' to work it out
I ain't got long
You ain't got long
We gotta know what this life is all about

Too late much too late
You're staring at me
With suspicion in your eye
You say what game are you playing?
What's this that you're saying?
I know that I can't reply
If I take you tonight
Is it making my life a lie?
Oh you make me wonder
Did I live my life right?

It's late - but it's time to set me free
It's late - yes I know but there's no way it has to be
Too late - so let the fire take our bodies this night
So late - so let the waters take our guilt in the tide
It's late it's late it's late it's late
It's late it's late it's late it's late
It's all too late



+++++++++++++++++++++++++++++++++
| Raileff                       |
+++++++++++++++++++++++++++++++++





Comments


Popular Queen tabs & chords
Jealousy Bass Tabs
One Vision Bass Tabs
Another One Bites The Dust 1 Tabs
Headlong 1 Tabs
March Of The Black Queen Ending Tabs
Sail Away Sweet Sister Tabs
Thephets Song Tabs
Tie Your Mother Down Tabs
Is This The World We Created Ukulele
Las Palabras De Amor Ukulele


Song lyrics



↑ Back to top | Tablatures and chords are parodies/interpretations of the original songs. You may use it for private study, scholarship, research or language learning purposes only
© 2014 AZChords.com Contact us | Privacy policy | DMCA | Add/correct tabs | Request tabs | Top 50 tabs