» » »

Queen, It's Late Tabs (ver.1)

Artists:  A B C D E F G H I J K L M N O P Q R S T U V W X Y Z # 

It's Late Tabs (ver.1)

Queen Tabs
 Rating:
4/5 (4 votes)
It's Late lessons Tabs too difficult? Try these video lessons and learn fast
                ------>0-----3--->2---
->2--->2-----4--->4---
->0--->0-----<0---<0---
-----------------------

---------------------3-----3p2-----------------2h3--2-------------
-2----------------2-------------2--------2-----2----2--2----------
------4--2-----4----------------------2-----2-------2-----2-------
------------5----------------------0-------------------------0----

--------------------------------------------------------
-----------------2---------------------3--3p2-2---------
---------2-------2-------------2-------2--2-----4p2-----
---------2-------2---------0---2-------4------------4p2-
-----0---0----x--0---------0---0----x--0----------------
-0h2---2---------------0h2---2--------------------------

------------------------------------------------
---------2---------------------3--3p2-2-2-------
-2-------2-------------2-------2--2---2-4p2-2---
-2-------2---------0---2-------4-(4p2)------2h4-
-0----x--0---------0(2)0----x--0----------------
---------------0h2---2--------------------------

------------------------------------------------
---------2---------------------3--3p2-2-2-------
-2-------2-------------2-------2--2-----4p2-2---
-2-------2---------0---2-------4------------4p2-
-0----x--0---------0---0----x--0----------------
---------------0h2---2--------------------------

------------------------------------------------
---------2---------------------3--3-2-2---------
-2-------2-------------2-------2--2-2-2-4p2-----
-2-------2---------0---2-------0----2-------2h4-
-0----x--0---------0---0----x-------------------
---------------0h2---2--------------------------

------------------------------------------------
---------2---------------------3--3-------------
-2-------2-------------2-------2--2-------------
-2-------2---------0---2-------0--0-------------
-0----x--0---------0---0----x-------4-2-0-------
---------------0h2---2--------------------2-0-2-

-------------------------------------
-2-------2---------7-------6---------
-2-------2---------6-------6---------
-2-------2---------6-------6---------
-0----x--0----x----4----x--4----x----
-------------------------------------

-2-------------2-----2------2-----------------------------
-2-------------2-----3------3--3-2-2-----------------2----
-2----2--------2-----2------2--2-2---4p2-----2-------2----
-4-------4--------0--------------2-------2h4-2-------2----
-4-------------------------------------------0----x--0----
------------0---------------------------------------------

-----------------0------------------------------
-----------------3-------2----2----2----2----2--
---------2-------2-------2----2----2----2----2--
-----0---2-------2-------2----2----2----2----2--
-----0---0----x----------0----0----0----0----0--
-0h2---2----------------------------------------

--------|---------------|-----|-----------
-10-9---|-2--2------2---|-9--\|-2-------2-
-9--9---|-2--2------2---|-9--\|-2-------2-
-9--9---|-2--2------2---|-9--\|-2-------2-
-7--7...|-0--0--3h4--...|-7...|-0...3h4---
--------|---------------|-0---|-----------

---------------------------------------------------
---------5----3---2------7--5--5--9--2--5--5--9--2-
-9--7----6----2---2---9--7--6--6--9--2--6--7--9--2-
-9--7----7..\-2..-2---9--7--6--7--9--2--7--7--9--2-
-7--5...----------0..-7--5..4..7..7..0..-..-..7..0-
-------------------------------5-------------------

------------------------------------------------
---------2---------------------3--3p2-2---------
-2-------2-------------2-------2--2-----4p2-----
-2-------2---------0---2-------4------------4p2-
-0----x--0---------0---0----x--0----------------
---------------0h2---2--------------------------

-----------------------------------------------
--------2---------------------3--3-2-2---------
-2------2-------------2-------2--2-2-2-4p2-----
-2------2---------0---2-------4------------2p4-
-0----x-0---0-----0---0----x-------------------
--------------0h2---2--------------------------

------------------------------------------------
---------2---------------------3--3p2-2---------
-2-------2-------------2-------2--2---2-4p2-----
-2-------2---------0---2-------4------------4p2-
-0----x--0---------0---0----x--0----------------
---------------0h2---2--------------------------

------------------------------------------------
---------2---------------------3--3-2-2---------
-2-------2-------------2-------2--2-2-2-4p2-----
-2-------2---------0---2-------4----2-------4p2-
-0----x--0---------0---0----x-------------------
---------------0h2---2--------------------------

------------------------------------------------
---------2---------------------3--3-------------
-2-------2-------------2-------2--2-------------
-2-------2---------0---2-------0--0-------------
-0----x--0---------0---0------------4---2-0-----
---------------0h2---2----------------------3b--

------------------------------------------------
---------2---------------------3--3-2-2---------
-2-------2-------------2-------2--2-2-2-4p2-----
-2-------2---------0---2-------4----4-------4p2-
-0-------0---------0---0----x-------------------
---------------0h2---2--------------------------

A C#sus4 c# 

-2---------------2------2----------------
-2---------2-----3------3--3p2-2---------
-2---------2-----2------2--2-----4p2-----
-4---------2--4----------------------4p2-
-4---------------------------------------
--------0--------------------------------

-------------------------------0---------------------------------0-----
---------2---------------------3------2-----2--------------------3-----
-2-------2-------------2-------2------2-----2--------------2-----2-----
-2-------2---------0---2-------2------2-----2----------0---2-----2-----
-0----x--0---------0---0----x---------0-----0----------0---0-----------
---------------0h2---2-----------------------------0h2---2-------------

AAAAA
...

3'9"
-----------------------------------------------
------------------2----------------------2-----
------------------2----------------------2-----
------------------2----------------------2-----
-*-----*-----*----0----------------------0-----
-0--0--0--0--0--00------0--0--0--0--000--------

-----------------------------------------------
-------------------2-----------------------2---
-------------------2-----------------------2---
-------------------2------------------20---2---
-------------------0--------------------4240---
-0--0--0--0--0--0---------0--0--0--0-----------

------------------------------------------------
-------------------2-----------------------2----
-------------------2-----------------------2----
-------------------2-----------------------2----
-------------------0-----------------------0----
-0--0--0--0--0--0--------0--0--0--0--0--0----...


3'29
------------------------------------------------
------------------------------------------------
-------------------------------------------4----
-------------------22----------------------4----
-------------------------------------------2----
-2--2--2--2--2--2--------2--2--2--2--2--220-----

------------------------------------------------
------------------------------------------------
---------------------------------------4--------
-----------2----------4----------------4--------
-------2h4-----4--2h4-4----------------2--------
-2--2-----------------2--2--2--2--2****---------

------------------------------------------------
------------------------------------------------
-------------------------------------------4----
-----------2----------4--------------------4----
-------2h4-----4--2h4-4--------------------2----
-2--2--------------------2--2--2--2--2--220-----

---------------------------------------------------
---------------------------------------------------
--------------------22-----------------------------
--------------------22--------------4--5--5--5--5--
---------------------------------4--4--5--5--5--5--
-2--2--2--2--2--2--2-------2--2--2--2--3--3--3--3--

--------------------------------|----------------------------------|-----
--------------------------------|----------------------------------|-----
--------------------------------|----------------------------------|-0//-
10--10--10--10--10--10------10--|-10--10--10--10--10--10--10--10---|-//0-
10--10--10--10--10--10--12--10--|-10--10--10--10--10--10--121012-8-|-----
-8---8---8---8---8---8---8---8--|--8---8---8---8---8---8---8---8---|...--

---------------------------------|----|
---------------------------------|----|
---------------------------------|-0/-|
---------------------------------|-/0-|
101013--12--1110--1012---8-8-8-8-|----|
-8-8-8-8-8-8-8-8-8-8-8-8-8-8-8-8-| 7X |

CG  DA  EB  E Esus4
...

5'36"
A Amaj7 D B E C# F#m A D A

E D A E D A E D A E D A


solos

3'30"
-----------2----------------------------------------------
-2-5b__7-----5p2------------------------------------__----
-----------------2x2b------4p2---2h4b__6t12v--p6r__4brp2--
-----------------------4-------4--------------------------
----------------------------------------------------------
----------------------------------------------------------

-------------------------------
-----2h5-5b__7__t12v_p7r__5-x--
-2h4---------------------------
-------------------------------
-------------------------------
-------------------------------

---------------------------------------------------
-(t12p)7h10t12p10b12t12p12___r10-------------------
---------------------------------6h9t12p9b11_t12---
---------------------------------------------------
---------------------------------------------------
---------------------------------------------------

---------------------------------------------------------
-7h10t12p10b12t12p12v--(t12p)12r_10p8t12p10-7------------
------------------------------------------(t12p)9b__11v--
---------------------------------------------------------
---------------------------------------------------------
---------------------------------------------------------

----------------------------------------------------
----------------------------------------------------
-r9p8p6--t12p4t12b_14p6r_4p2--t12p4-3-2-------------
-------7--------------------------------4p2---2-----
--------------------------------------------4---4\2-
----------------------------------------------------

-------------------------------------
---------___-------------------------
-(t12p)2-4b6t12p6r5t12p5r4t12v___\tr\
-------------------------------------
-------------------------------------
-------------------------------------

3'56
---------5--------------------------------------------------------
-7b___8------x-b8-b8-b8-b8-b8b-b8-b8-b8-b8-b8-b8-b8-b8-b8-b8-b8---
-----------8------------------------------------------------------

-----------------------------------
---------------------6---5---6---5-
-b8r7p5--7p5---5-----5---5---5---5-
-------------7-----5-7---5---7---5-
-----------------------------------
-----------------------------------

-------------___-___-----------------------------------------------
-8b10----10_r8p5-8p5-------___---5-6-5---------------5---5-6---5---
---------------------8-7-5-7p5---5-5-5---------------5---5-5---5---
-------------------------------7-5---5-------___-5---5---5-7---5---
---------------------------------------7-3-3-5/7---7---------------
           _____
--------5--8p5h8-5-------------
-8b10--------------8-b10---8---
-------------------------------
-------------------------------
-------------------------------
-------------------------------

--------------------------___-------------------------------6-6-6-6-6-6-6-6---
-4r3---3b__5__t12__p5r3p1-3p1---1-3b5t8---6b8t15___p8r6p5---8-8-8-8-8-8-8-8...
-----2----------------------------------------------------5-------------------
------------------------------2-----------------------------------------------

lyrics:
   You say you love me
   And I hardly know your name
   And if I say I love you in the candlelight
   There's no one but myself to blame

   But there's something inside
   That's turning my mind away
   Oh how I could love you
   If I could let you stay

   It's late - but I'm bleeding deep inside
   It's late - is it just my sickly pride?
   Too late - even now the feeling seems to steal away
   So late - though I'm crying I can't help but hear you say

   It's late it's late it's late
   But not too late

   The way you love me
   Is the sweetest love around
   But after all this time
   The more I'm trying
   The more I seem to let you down
   Now you tell me you're leaving
   And I just can't believe it's true
   Oh you know that I can love you
   Though I know I can't be true
   Oh you made me love you
   Don't tell me that we're through

   It's late - but it's driving me so mad
   It's late - yes I know but don't try to tell me that it's
   Too late - save our love you can't turn out the lights
   So late - I've been wrong but I'll learn to be right

   It's late it's late it's late
   But not too late

   - I've been so long
   - You've been so long
   - We've been so long tryin' to work it out

   - I ain't got long
   - You ain't got long
   - We gotta know what this life is all about

   Too late much too late

   You're staring at me
   With suspicion in your eye
   You say what game are you playing?
   What's this that you're saying?

   I know that I can't reply
   If I take you tonight
   Is it making my life a lie?
   Oh you make me wonder
   Did I live my life alright?

   It's late - but it's time to set me free
   It's late - yes I know but there's no way it has to be
   Too late - so let the fire take our bodies this night
   So late - so let the waters take our guilt in the tide

   It's late it's late it's late it's late
   It's late it's late
   It's all too late
            
Submit corrections

comments powered by Disqus
↑ Back to top | Queen Tabs for It's Late. Lyrics for acoustic guitar and electric guitar. Tablatures and chords are parodies/interpretations of the original songs. You may use it for private study, scholarship, research or language learning purposes only