» » »

Queen, I'm Going Slightly Mad Bass tabs (ver.1)

Artists:  A B C D E F G H I J K L M N O P Q R S T U V W X Y Z # 

I'm Going Slightly Mad Bass tabs (ver.1)

Queen Tabs
 Rating:
4/5 (4 votes)
I'm Going Slightly Mad lessons Tabs too difficult? Try these video lessons and learn fast
1
                I'M GOING SLIGHTLY MAD
QUEEN
WRITTEN BY QUEEN
TAKEN FROM THE ALBUM "INNUENDO"



John Play's two parts over some parts of the song using a 5 string bass

I have tabbed out both sections so play either - it does sound better using a 5 string though (if you have one)

But if using a 4 string be carefull - best thing to do is save and delete the 5th string notes


Keyboard intro
									1st & 2nd Verses
G|-----------------|----------/15---------|--------------------------|-----------------|---------------|
D|-----------------|--------------15-14/20|let-ring--\19\12---\7---\-|*-0-0-0--0-3-0---|0-0-0--0-0-0---|
A|-----------------|----------------------|--------------------------|-----------------|---------------|
E|-----------------|----------------------|--------------------------|*----------1-----|---------------|
B|-----------------|----------------------|--------------------------|--3-3-3--3---3---|3-3-3--3-3-3---|

G|--------------|------------|----------------|---------------|--------------|--------------|-----6------6-|
D|--------------|------------|0-0--00-0-0--0--|0-0---00-0-0-0-|--------------|--------------|4-4----4-4----|
A|------------5\|13----------|----------------|---------------|--------------|--------------|--------------|
E|0-------3\6---|------------|----------------|---------------|0-0--------0--|0-0--------0--|--------------|
B|--------------|------------|3-3-----3-3--3--|3-3---33-3-3-3-|--------------|--------------|--------------|

G|--------------|------------|------------|---------------|----------------|-------------|----------------|
D|4-4--------4--|5--5--5--5--|5--5--5--5--|4--------------|----------------|-------------|----------------|
A|--------------|------------|------------|---------------|----------------|-------------|----------------|
E|--------------|------------|------------|----2-2-2---2--|2----2-2-2----2-|3-3-------3--|3------3------3-|
B|--------------|------------|------------|---------------|----------------|-------------|----------------|
			      Chorus
G|------------|-------------|-------------|--------------|------------|--------------|----------------|
D|------------|-------------|0---0-0----0-|0---0-0-------|0--0--0--0--|0--0----------|----------------|
D|------------|-------------|-------------|--------------|------------|--------------|----------------|
E|5--5--5--5--|5--5--5--5-\-|-------------|--------------|------------|------0-0---0-|0-0---0-0-0---0-|
B|------------|-------------|3---3-3----3-|3---3-3-------|3--3--3--3--|3--3----------|----------------|

G|--------------|-----------------|-----------------|----------------|-----------------|----------------|
D|--------------|-----------------|-----------------|----------------|-----------------|----------------|
A|--------------|-----------------|-----------------|----------------|-----------------|----------------|
E|1-1----1-1----|1------1------1--|0-0------0-0-----|0----0-0-0----0-|1-1----1-1-1---1-|1-1-1-1-1-1---1-|
B|--------------|-----------------|-----------------|----------------|-----------------|----------------|

									             1st Time    |
G|-----------|-------------|-----------------|----------------|----------------|-----------------|
D|-----------|-------------|0-0----0-0-0---0-|0-0---0-0-0-----|0-0---0-0-0---0-|3-0-3-0-0-0----0-|
A|-----------|--------5-\--|-----------------|------------3-4-|----------------|-----------------|
E|4----4-----|3----3-------|-----------------|----------------|----------------|1---1------------|
B|-----------|-------------|3-3----3-3-3---3-|3-3---3-3-3-1-2-|3-3---3-3-3---3-|--3---3-3-3----3-|

       2nd Time  |Guitar Solo
G|---------------|---------------|---------------|---------------|--------------|---------------|
D|---------------|0-0---0---0-0--|0---0--0-0-0-0-|0--0-0-------0-|0--0-0-0-0--0-|0--0-0-0-------|
A|---------------|---------------|---------------|---------5/7---|--------------|---------5/7\--|
E|3--3--3--10-\--|---------------|---------------|-------0-------|--------------|---------------|
B|---------------|3-3---3---3-3--|3---3--3-3-3-3-|3--3-3-------3-|3--3-3-3-3--3-|3--3-3-3-------|

G|------------|-----------------|----------------|--------------|---------------|--------------|
D|------------|-----------------|----------------|--------------|---------------|--------------|
A|5/7--7------|-----------------|----------------|--------------|---------------|--------------|
E|------------|1-1---1-1-1----1-|1-1---1-1-1---1-|0-0--0-0----0-|0--0--0-0---0--|1---1---1-----|
B|3/5--5------|-----------------|----------------|--------------|---------------|--------------|

										3rd Verse
G|---------------|---------------|-----------|---------------|-----------------|---------------|
D|---------------|------3-6-3----|-----------|0---0---0--let-|ring-------------|---------------|
A|---------------|--2-5-------5--|-----------|---------------|-----------------|---------------|
E|1------1---1---|4--------------|3----3--3--|---------------|-----------------|2-2---22-2---2-|
B|---------------|---------------|-----------|3---3---3------|-----------------|---------------|

G|-----------------|----------------|---------------|----------------|-----------------|-----------------|
D|4--------4-------|----------------|-----5-3----345|----------------|-----------------|-----------------|
A|-----------------|----------------|------5--345---|----------------|--------------/5-|-----------------|
E|-----------------|3-3----3-3-3-3--|3-3------------|2-2---22-2----2-|2-2/14---2-2-----|3-3---3---3-3--3-|
B|-----------------|----------------|---------------|----------------|-----------------|-----------------|

G|-----------------|------------------|-----------------|----------------|-----------------|-----------------|
D|-----------------|-------2\---------|-----------------|----------------|-----------------|-----------------|
A|-----------------|0-0---------------|------9\---------|----------------|-----------------|-----------------|
E|3-3---3-3-3----3-|-----------5-5--5-|7-7-------7-7-5/7|0-0---0-0-0---0-|0-0---0--2-2---2-|0-0---0-0-0----0-|
B|-----------------|------------------|-----------------|----------------|-----------------|-----------------|

G|-----------------|-----------------|--------------|--------------|-----------------|-----------------|
D|-----------------|-----------------|--------------|--------------|-----------------|-----------------|
A|-----------------|-----------------|--------------|--------------|-----------------|-----------------|
E|0-0---0-2-2----2-|2-2---2-2-2----2-|3-3---3-------|3-3---3----3--|2--------2-------|2------2------2--|
B|-----------------|-----------------|--------------|--------------|-----------------|-----------------|

					    this next section is very fast
G|-----------------|-----------------|---------12-14-15-14-12--|----------17----\-14-15-|
D|-----------------|-----------------|-----------------------14|10---/------------------|
A|-----------------|-----------------|-------------------------|------------------------|
E|3-------3--------|3-----3------3---|6------------------------|------------------------|
B|-----------------|-----------------|-------------------------|------------------------|

G|17-15-14-15-18-15-14-15-17-15114-15-18-15-14-15|17-15-14-15-18-15-14-17-15-14-15-18-15-14-15|19\21------14\16-|
D|-----------------------------------------------|--------------------------------------------|-----------------|
A|-----------------------------------------------|--------------------------------------------|-----------------|
E|-----------------------------------------------|--------------------------------------------|-----------------|
B|-----------------------------------------------|--------------------------------------------|-----------------|

G|----------------|----------------|-----------------|-----------------|----------------|----------------|
D|12-\5-/10-\5-/--|----------------|-----------------|-----------------|----------------|----------------|
A|----------------|----------------|-----------------|-----------------|----------------|----------------|
E|----------------|3-3----3-3-3--3-|3-3---3-3-3----3-|7-7----7-7-7---7-|7-7---7-7-7---7-|0-0---0-0-0---0-|
B|----------------|----------------|-----------------|-----------------|----------------|----------------|

G|----------------|----------------|7\------5\-------|-----------------|-----------------| 
D|----------------|----------------|-----------------|-----------------|-----------------| 
A|----------------|----------------|-----------------|-----------------|-----------------| 
E|0-0---0-0-0---0-|3-3/-----3-3----|-----------------|7-7----7-7-7---7-|7-7---7-7-7----7-| 
B|----------------|----------------|-----------------|-----------------|-----------------| 

   tremolo picking - very very fast
G|----0-2-4-5-7-9------------| 
D|2-4------------------------| 
A|---------------------------| 
E|---------------------------| 
B|---------------------------|
            
Submit corrections

comments powered by Disqus
↑ Back to top | Queen Bass for I'm Going Slightly Mad. Lyrics for acoustic guitar and electric guitar. 1 Tablatures and chords are parodies/interpretations of the original songs. You may use it for private study, scholarship, research or language learning purposes only