>
 >
Friends Will Be Friends 2

Friends Will Be Friends 2 Guitar Tabs

Queen - Friends Will Be Friends 2 chords, tabs, tablatures, lyrics

Guitar lessons | Add/correct | Request | Top 50 tabs Artists:  A B C D E F G H I J K L M N O P Q R S T U V W X Y Z 0-9

Friends Will Be Friends 2 Guitar Tabs – Queen

CD, Sheet music, Poster

Do you like Friends Will Be Friends 2? Share with your friends now
Bass TabsChordsTabsTabs v2Tabs v3Ukulele
Queen - Friends will be friends
Standard tuning


Remark: I think it's optional for the lead guitar to play chords too. This
	tab is designed for two guitars (Rhytm guitar plays the chords, 
	E-guitar plays the riffs). Nevertheless, here are the chords:

'''''''''''''''''''''''''''''''''''''''''''''''''''''''''''''''''''''''''
Verse 1: (after Intro, until "... but you got friends you can trust") 
G, D/F# (2xx232), Em, Bm, G7, C, Am, D, G, B7, Em, G7, Am, D 

Chorus: (after verse 1, until "...right till the end")
C. A, G, Em, D, Ebdim (xx1212), Em, Em/D# (xx1xxx), A7, C, D

Verse 2: (after 0:56 riff, until "...cos' you got friends you can trust")
same chords as the first part

Chorus: (after Verse 2, until "...right till the end")
see above

Chorus: (at 2:30 "it's so easy now..." until "...right till the end" at 2:57)
Am,D,...,D

Chorus+Outro: (from 2:58 until 3:55)
C, A, G, Em, D, Ebdim (xx1212), Em, Em/D# (xx1xxx), A7, C, D, G 

'''''''''''''''''''''''''''''''''''''''''''''''''''''''''''''''''''''''''
And now, here are the riffs. The only trick is, to play very very smoothly.

Intro
-----

E|---------------------------------------------12-13-12-12h13/10-------|E
B|--12p11h12-10p9h10------------------------13-------------------------|B
G|-------------------12p11h12-10p9h10-9~-12----------------------------|G
D|---------------------------------------------------------------------|D
A|---------------------------------------------------------------------|A
E|---------------------------------------------------------------------|E

0:56
----

"cause friends will be friends"...

...D D 

E|---------------------------------------------12-13-12-12h13/10-------|E
B|--12p11h12-10p9h10------------------------13-------------------------|B
G|-------------------12p11h12-10br-9h10p9~-12--------------------------|G
D|---------------------------------------------------------------------|D
A|---------------------------------------------------------------------|A
E|---------------------------------------------------------------------|E

1:55
----

"cause friends will be friends"...

...D D D

E|---------------------------------------------------------------------|E
B|---------------------------------------------------------------------|B
G|---------9--9--9--9-9-9-7--------9/10/9-7/8/7----------------9-11/7--|G
D|--5-5-3-10-10-10-10-8-8-8--5-5-3---------------------9-11-12---------|D
A|--5-5-3--------------------5-5-3--------------5-5-10-----------------|A
E|--3-3-1--------------------3-3-1-------------------------------------|E

E|---------------------------------------------------------------------|E
B|------------------------------15h17------------------10-12-10/12/10--|B
G|--9h11h12--11h12h14--12h14h16-------16-14-12-11-9--9-----------------|G
D|---------------------------------------------------------------------|D
A|---------------------------------------------------------------------|A
E|---------------------------------------------------------------------|E

E|---------------------------------------------------------------------|E
B|--------------------------------------12b-10h12p10-12-10---------15b-|B
G|--12p11h12-11p9h11-9p7h9-7p5h7-7-9-11--------------------12-10-12----|G
D|---------------------------------------------------------------------|D
A|---------------------------------------------------------------------|A
E|---------------------------------------------------------------------|E

E|---------------------------------------------------------------------|E
B|--15-13-12-----------------------------------------------------------|B
G|-----------14-12-10-8-6----------------------------------------------|G
D|------------------------7--------------------------------------------|D
A|---------------------------------------------------------------------|A
E|---------------------------------------------------------------------|E

2:45
----

E|----------------------------12h15h17---19~---------------------------|E
B|--13/15-12h14h15-15h17h19--------------------------------------------|B
G|---------------------------------------------------------------------|G
D|---------------------------------------------------------------------|D
A|---------------------------------------------------------------------|A
E|---------------------------------------------------------------------|E

3:04
----

E|----------------------------12h14h15-15-14-12-15---------------------|E
B|------------15h17p15h17/19~-19/17------------------------------------|B
G|---------------------------------------------------------------------|G
D|---------------------------------------------------------------------|D
A|---------------------------------------------------------------------|A
E|---------------------------------------------------------------------|E

3:15 (optional. Sounds good!)
----

E|--19-17h19p17~-------------------------------------------------------|E
B|---------------------------------------------------------------------|B
G|---------------------------------------------------------------------|G
D|---------------------------------------------------------------------|D
A|---------------------------------------------------------------------|A
E|---------------------------------------------------------------------|E

3:22 
----

E|---------------------------------------------------------------------|E
B|----10br-10/12------12bp10h12p10-----12b-9h12p9-12h13h15h17----------|B
G|--9------------7-9---------------7-9-------------------------12h13h15|G
D|---------------------------------------------------------------------|D
A|---------------------------------------------------------------------|A
E|---------------------------------------------------------------------|E

E|-------------------20-20-19-19-17-17-15-14---------------------------|E
B|---------------------------------------------------------------------|B
G|--15br15br-p14p12----------------------------------------------------|G
D|---------------------------------------------------------------------|D
A|---------------------------------------------------------------------|A
E|---------------------------------------------------------------------|E

3:45 
----

E|--10br-10br-10br-10br(4th time slooow)-12-14b12r-14b12r-12~----------|E
B|---------------------------------------------------------------------|B
G|---------------------------------------------------------------------|G
D|---------------------------------------------------------------------|D
A|---------------------------------------------------------------------|A
E|---------------------------------------------------------------------|E

D D G





Comments


Popular Queen tabs & chords
Breakthru 4 Bass Tabs
The Show Must Go On Chords
Crazy Little Thing Called Love Drum Tabs
Now Im Here Intro 1 Tabs
Sleeping On The Sidewalk Tabs
The March Of The Black Queen 1 Tabs
Tie Your Mother Down 1 Tabs
Call Me Ukulele
Dreamers Ball Ukulele
Innuendo Ukulele


Song lyrics



↑ Back to top | Tablatures and chords are parodies/interpretations of the original songs. You may use it for private study, scholarship, research or language learning purposes only
© 2014 AZChords.com Contact us | Privacy policy | DMCA | Add/correct tabs | Request tabs | Top 50 tabs