» » »

Queen, Crazy Little Thing Called Love Tabs (ver.1)

Artists:  A B C D E F G H I J K L M N O P Q R S T U V W X Y Z # 

Crazy Little Thing Called Love Tabs (ver.1)

Queen Tabs
 Rating:
4/5 (4 votes)
Crazy Little Thing Called Love lessons Tabs too difficult? Try these video lessons and learn fast
1
                Key:

 ~  = vibrato
/15 = slide up to fret 15
 ^  = hammer/pull

 )
13  = 2-fret bend at fret 13
 ____
 )     = hold a 2-fret bend at fret 15 and pick the note again 
15 15 

NOTE:  Some of the bends are delayed - ie.  play the note and bend 
       after a short while rather than immediately.
                                

E ------------------------)--)--)---------------)-13-----------------------
B -/15--15-15--15-15--15-13-13-13--11-12--11~--13-----/15--15-15--15-15-12-
G -/14--14-14--14-14--14------------------------------/14------------------
D -------------------------------------------------------------------------
A -------------------------------------------------------------------------
E -------------------------------------------------------------------------
                        
                                                                    
____
E ------------------------------)-13--)-13--)-13-----------)-13-----)-------
B ----------------12^15-15-----13----13----13----13-11~---13-------15-15----
G -14-11----11^14-----------------------------------------------------------
D -------12-----------------------------------------------------------------
A --------------------------------------------------------------------------
E --------------------------------------------------------------------------

    
E ---------------------------------------------
B -15-17--15--14-----------------13----12------
G ---------------14-------14--14----14----14~--
D ------------------16-------------------------
A ---------------------------------------------
E ---------------------------------------------
            
Submit corrections

comments powered by Disqus
↑ Back to top | Queen Tabs for Crazy Little Thing Called Love. Lyrics for acoustic guitar and electric guitar. 1 Tablatures and chords are parodies/interpretations of the original songs. You may use it for private study, scholarship, research or language learning purposes only