>
 >
Bohemian Rhapsody 2

Bohemian Rhapsody 2 Guitar Tabs

Queen - Bohemian Rhapsody 2 chords, tabs, tablatures, lyrics

Guitar lessons | Add/correct | Request | Top 50 tabs Artists:  A B C D E F G H I J K L M N O P Q R S T U V W X Y Z 0-9

Bohemian Rhapsody 2 Guitar Tabs – Queen

CD, Sheet music, Poster

Do you like Bohemian Rhapsody 2? Share with your friends now
Bass TabsBass Tabs v2Bass Tabs v3ChordsChords v2Drum TabsTabsTabs v2Tabs v10Tabs v11Tabs v3Tabs v4Tabs v5Tabs v6Tabs v7Tabs v8Tabs v9
Okay guys. This is the bedst tab for bohemian rhapsody. Just try it!
And this tab isnt for new guitar players.
ENJOY!

 Gtr I
|---------|---------|---------|-----|
|---------|---------|---------|-----|
|---------|---------|---------|-----|
|---------|---------|---------|-----|
|---------|---------|---------|-----|
|---------|---------|---------|-----|


|---------3-------|----------|----------------11----11-|
|-------3---3-----|-6--------|----------11-13----11----|
|-3---3-------3---|-7--------|-12----12----13----12----|
|-5-5-----------5-|-8--------|-13-13-------------------|
|-5---------------|-8--------|-13----------------------|
|-3---------------|-6--------|-11----------------------|


|---------------------|----1-5-(5)----|-7--6--5--6--|
|-----8-11-(11)--8----|-1--1-6-(6)----|-7--6--5--6--|
|-----8--8--(8)--8----|-2--2-5-(5)----|-8--7--6--7--|
|-10----10-(10)-10----|-3-------------|-------------|
|-10------------------|-3-------------|-------------|
|--8---------------8--|-1-------------|-------------|


|-7--6--5--6--|-------11----------10----|-----------------------|
|-7--6--5--6--|-------11----------11----|--9----11----------10--|
|-8--7--6--7--|-------12----------10----|--9-----9-----9-----8--|
|-------------|-13-13----13-12-12----12-|-11-11-11-11-10-10-----|
|-------------|-13----------13----------|-10-----------8--------|
|-------------|-11----------10----------|--9-----------8--------|


|---------------^11----|---------15----13----|
|-(10)----------^10----|---------------------|
|--(8)-------10-^10----|-7-----7-12----10----|
|------10-13----^13----|-8---8---------------|
|----------------------|-8-8-----------------|
|----------------------|-6----------13----13-|


                        Verse 1
|---------15----13----||---------15----13-----|
|---------------------||----------------------|
|-7-----7-12----10----||-7-----7-12----10-----|
|-8---8---------------||-8---8----------------|
|-8-8-----------------||-8-8------------------|
|-6----------13----13-||-6----------13----13--|


|---------17----15----|-----------22----20----|
|-------3-------------|---------8-------------|
|-3---3---14----12----|--8----8---19----17----|
|-5-5-----------------|-10-10-----------------|
|-5-------------------|-10--------------------|
|-3----------15----15-|--8-----------20----20-|


|-------------------8-|---------15----13-----|
|-11------8-10--------|----------------------|
|--8----8---10-8-10---|-7-----7-12----10-----|
|-10-10-----10--------|-8---8----------------|
|-10---------8--------|-8-8------------------|
|--8------------------|-6----------13----13--|


|---------17----15----|--------------------|
|-------3-------------|---------8--------8-|
|-3---3---14----12----|--8----8----8---8---|
|-5-5-----------------|-10-10------9---8---|
|-5-------------------|-10--------10-------|
|-3----------15----15-|--8---------7-7-6---|


|-----------------||-------11----------------|
|-------8---8---8-||-------11----11-------11-|
|-8---8---8---8---||-------12----12-------10-|
|-7-7-----6---5---||-13-13----13----13-12----|
|-6---------------||-13----------------13----|
|-5-------4---8---||-11----------------10----|


|-----------22----20----|-------8-8-8---6---|-----------------------|
|--8------8-------------|--9----9---------7-|-----6-----8-----9-----|
|--8----8---19----17----|-10-10---9-8-8-7---|-7---7-----7-----7-----|
|-10-10-----------------|-10--------6---6---|-8---8-----8-----8-----|
|-10--------------------|--8------7-6---5---|-8---------------------|
|--8-----------20----20-|-------------------|-6-6---6-6---6-6---6-6-|


|-------11----------10----|-----------------|----------------11----11-|
|-------11----------11----|--8----8----4----|----------11-13----11----|
|-12----12----10----10----|--8----8----4----|-12----12----13----12----|
|-13-13----13-12-12----12-|-10-10---10-6----|-13-13-------------------|
|-13----------13----------|-10---------6----|-13----------------------|
|-11----------10----------|--8---------4----|-11----------------------|


 2/4           4/4
|----11----11-|---------15----13----|
|-10-----9----|---------------------|
|-11----10----|-7-----7-12----10----|
|-------------|-8---8---------------|
|-------------|-8-8-----------------|
|-------------|-6----------13----13-|


                        Verse 2
|---------15----13----||---------15----13----|
|---------------------||---------------------|
|-7-----7-12----10----||-7-----7-12----10----|
|-8---8---------------||-8---8---------------|
|-8-8-----------------||-8-8-----------------|
|-6----------13----13-||-6----------13----13-|


|---------17----15----|-----------22----20----|-------------------8-|
|-------3-------------|---------8-------------|-11------8-10--------|
|-3---3---14----12----|--8----8---19----17----|--8----8---10-8-10---|
|-5-5-----------------|-10-10-----------------|-10-10-----10--------|
|-5-------------------|-10--------------------|-10---------8--------|
|-3----------15----15-|--8-----------20----20-|--8------------------|


|---------15----13----|---------17----15----|--------------------|
|---------------------|-------3-------------|---------8--------8-|
|-7-----7-12----10----|-3---3---14----12----|--8----8----8---8---|
|-8---8---------------|-5-5-----------------|-10-10------9---8---|
|-8-8-----------------|-5-------------------|-10--------10-------|
|-6----------13----13-|-3----------15----15-|--8---------7-7-6---|


|---------------------||-------11------------------|
|-------8---8---8-----||-------11----11-------11---|
|-8---8---8---8-------||-------12----12-------10---|
|-7-7-----6---5-------||-13-13----13----13-12------|
|-6-------------------||-13----------------13------|
|-5-------4---8-------||-11----------------10------|
|
| Gtr II
|         ~~~~~~~
|---------------------||---------------------------|
|---------------------||---------------------------|
|---------------------||---------------------------|
|---------------------||---------------------------|
|---------------------||--6-----------------5s===3-|
|-5-------4---3p==(0)-||---------------------------|


|-----------22----20---------|
|--8------8------------------|
|--8----8---19----17---------|
|-10-10----------------------|
|-10-------------------------|
|--8-----------20----20------|
|
|----------------------------|
|----------------------------|
|----------------------------|
|----------------------------|
|--3-----------------(3)s0---|
|--------------------------1-|


|-------8-8-8---6---|----------------------------||
|--9----9---------7-|-----6-6---8-8---9-9--------||
|-10-10---9-8-8-7---|-7---7-7---7-7---7-7--------||
|-10--------6---6---|-8---8-8---8-8---8-8--------||
|--8------7-6---5---|-8--------------------------||
|-------------------|-6-------8-----8-----8--8---||
|
|                                           Gtr III
|           ~
|-------------------|----------------------------||
|-------------------|----------------------------||
|-------------------|----------------------------||
|-------------------|--------------------------8-||
|---------7-6---5---|----------------------------||
|--1----------------|-6-6-6-6-6-6-6-6-6-6-6------||


 Guitar Solo
  Gtr III
   ~~                       ~~                    ~~~~~~~~~~~~     ~~       ~~
|--------------------------------------|--------------------------------------------|
|--------------------------11--------8-|-11b13==(11)----(11)r-----13-15-16-13-15-16-|
|-------10b12==(10)r(10)p8-------------|------------------------x-------------------|
|--8-----------------------------------|------------------------x-------------------|
|--------------------------------------|--------------------------------------------|
|--------------------------------------|--------------------------------------------|
|
| Gtr II
|                           ~~~~~~~~~~~~~~~~~~~~~~~~~~~~~~~~~~~~~~~~~~~~~~~~~~~~~~~~~
|--------------------------------------|--------------------------------------------|
|--------------------------------------|--------------------------------------------|
|--------------------------------------|--------------------------------------------|
|--------------------------------------|--------------------------------------------|
|--6------------------------5----------|--3-----------------------------------------|
|--------------------------------------|--------------------------------------------|
|
| Gtr I
|-------11-----------------------10----|--------------------------22-------20-------|
|-------11-----------------------11----|--8-------------------8---------------------|
|-12----12-----------------10----10----|--8---------------8-------19-------17-------|
|-13-13---------13---------12-12----12-|-10----------10-----------------------------|
|-13-----------------------13----------|-10-----------------------------------------|
|-11-----------------------10----------|--8--------------------------20-------20----|


   ~~~~~~~                               ~~~~~~
|---------------------------13-15-16-18-18pb20---|
|-16pb18=======(16)r(16)-13----------------------|
|------------------------------------------------|
|------------------------------------------------|
|------------------------------------------------|
|------------------------------------------------|
|
|~~~~~~~~~                   ~~
|------------------------------------------------|
|------------------------------------------------|
|------------------------------------------------|
|------------------------------------------------|
|----------------7-----------6-----------5-------|
|--1---------------------------------------------|
|
|------------8---8-----------8-----------8-------|
|--9---------9-----------------------------------|
|-10------10-----9-----------8-----8-----7-----7-|
|-10-------------------------8-----------6-------|
|--8-------------7-----------6-----------5-------|
|------------------------------------------------|


                                                                   ~~~~~~~~~~~~
|-18s16-16-15-16-15h16p15----15-----------------------------------------------|
|-------------------------18----18-16-15---16-15h16p15----15------------------|
|------------------------------------------------------17----17---15-(15)-----|
|-----------------------------------------------------------------------------|
|-----------------------------------------------------------------------------|
|-----------------------------------------------------------------------------|
|
|-----------------------------------------------------------------------------|
|-----------------------------------------------------------------------------|
|-----------------------------------------------------------------------------|
|-----------------------------------------------------------------------------|
|-----------------------------------------------------------------------------|
|-----6-----------6--------6--------6----6-----6-----------6----6------6----6-|
|
|-----------------------------------------------------------------------------|
|-----------------6--------6-------------8-----8----------------9------9------|
|-----7-----------7--------7-------------7-----7----------------7------7------|
|-----8-----------8--------6-------------8-----8----------------8------8------|
|-----8-----------------------------------------------------------------------|
|-----6-----------------------------6----------------------6--------------6-6-|


 ~~~~~~                          ~~~~~~~~~~                             ~~
|-------------------------15-16-18---(18)\----------------15-16-18-----20----|
|----------------15-16-18------------------------15-16-18--------------------|
|-(15)--15----17---------------------------15-17-----------------------------|
|----------------------------------------------------------------------------|
|----------------------------------------------------------------------------|
|----------------------------------------------------------------------------|
|
|   ~~~~                               ~~~~~
|----------------------------------------------------------------------------|
|----------------------------------------------------------------------------|
|----------------------------------------------------------------------------|
|----------------------------------------------------------------------------|
|---6-------------------------6----6---5---------------------------(5)--5----|
|----------------------------------------------------------------------------|
|
|-------------------11------------------------------------10-----------------|
|-------------------11------------------------------------11-----------------|
|--12---------------12----------------10------------------10-----------------|
|--13------13----------------13-------12------12-------------------12--------|
|--13---------------------------------13-------------------------------------|
|--11---------------------------------10-------------------------------------|


    ~~~~             ~~       ~~~          ~~~~~~              ~~~~~~
|-(20)----------------------------------|------------------------------13---|
|-------------15-16-13-15-16-13---15-16-|-16pb18----------------------------|
|---------------------------------------|---------------10-12-12pb13--------|
|---------------------------------------|-------------x---------------------|
|---------------------------------------|-----------------------------------|
|---------------------------------------|-----------------------------------|
|
|   ~~~~                                                       ~~~~~~
|---------------------------------------|-----------------------------------|
|---------------------------------------|-----------------------------------|
|---------------------------------------|-----------------------------------|
|--------------------5------------------|-----------------------------------|
|--\3----------------3--------3p1-------|----------------7-----6--------5---|
|---------4-3--2--3----------------3p=1-|--1--------------------------------|
|
|-------------------22-------20---------|-----------8----8-----8--------8---|
|---8----------8------------------------|--9--------9-----------------------|
|---8-----8---------19-------17---------|-10-----10------9-----8-----8--7-7-|
|--10--10-------------------------------|-10-------------------8--------6---|
|--10-----------------------------------|--8-------------7-----6--------5---|
|---8------------------20---------20----|-----------------------------------|


   ~~                                      ~
|---------------------------------------------||
|--------------14----14-14-14-14-(14)s17------||
|-13-------------------------------------6-6--||
|---------------------------------------------||
|---------------------------------------------||
|---------------------------------------------||
|
|---------------------------------------------||
|---------------------------------------------||
|--6----(6)-----------------------------------||
|--6----(6)--6-----5-----------4---------3----||
|--4----(4)--4-----3-----------2---------1----||
|---------------------------------------------||
|
|-----9--9------------------------------------||
|--6--9--9---9-----8-----------7---------6----||
|--6-10-10--10-----9-----------8---------6----||
|--6--------11----10-----------9---------8----||
|--4--------11----10-----------9---------8----||
|------------9-----8-----------7---------6----||


                    Interlude
  Gtrs II, III    Gtr III
|-----------------||-----------------------|-----------------------|
|-----------------||-7-5-5-4-5-7-5-5-4-5-5-|-7-5-5-7-5-5-4-4-5-7-5-|
|-----------------||-7-6-6-5-6-7-6-6-5-6-6-|-7-6-6-7-6-6-5-5-6-7-6-|
|-7---------------||-5-7-7-7-7-7-7-7-7-7-7-|-7-7-7-7-7-7-7-7-7-7-7-|
|-7---------------||-----------------------|-----------------------|
|-5---------------||-----------------------|-----------------------|
|
| Gtr I
|-----------------||-----------------------|-----------------------|
|-5-5-5-5-5-5-5-5-||-----------------------|-----------------------|
|-6-6-6-6-6-6-6-6-||-----------------------|-----------------------|
|-7-7-7-7-7-7-7-7-||-----------------------|-----------------------|
|-----------------||-----------------------|-----------------------|
|-----------------||-----------------------|-----------------------|


  Gtr III
|-----------------------|----------|
|-6-6-4-6-4-4-5-5-5-9-9-|-5--------|
|-6-6-5-6-5-5-5-5-5-7-7-|-6--------|
|-6-6-6-6-6-6-5-5-5-9-9-|-7--------|
|-------------------7-7-|-7--------|
|-4-4-4-4-4-4-3-3-3-0-0-|-5--------|


 5/4                     4/4
|----------------------||-7-6-5-6-7-6-5-6-|
|----------------------||-7-6-5-6-7-6-5-6-|
|----------------------||-8-7-6-7-8-7-6-7-|
|--7-7-8-7-5-----------||-----------------|
|------------8-7-------||-----------------|
|----------------------||-----------------|


|----------------------------------|
|--9--8--8--7--8--9--9--8--7--7--8-|
|--8--8--8--8--8--8--8--8--8--8--8-|
|-10--8--8--7--8-10-10--8--7--7--8-|
|----------------------------------|
|-11-11-11-11-11-11-11-11-11-11-11-|


                               2/4
|-----------------------------|----11----11----11----11--|
|-4-4-4-4-4-4-4-4-4-4-3-11-11-|-12----11----10-----9-----|
|-5-5-5-3-3-3-2---2-2-3-------|-13----12----11----10-----|
|-6-6-6-5-5-5-1---1-1-3-------|--------------------------|
|-6-6-6-6-6-6-3---3-3-1-------|--------------------------|
|-4-4-4-3-3-3-1---1-1---------|--------------------------|


 4/4
|-7-6-5-6-7-6-6---|-----6--------------|
|-7-6-5-6-7-6-5---|-4---8-6-----6------|
|-8-7-6-7-8-7-6---|-3---8-7-7-8---8-7--|
|---------------8-|-5-8-8-8-8-8-8-8-8--|
|---------------8-|-6-8-6--------------|
|---------------6-|---6---6-6-6-6-6-6--|


                       2/4
|---------------------|----------|
|--6-8---------6------|--6-8-----|
|--7-8-7-7-7-8---8-7--|--7-8-7-7-|
|--8-8-8-8-8-8-8-8-8--|--8-8-8-8-|
|--8-6-8--------------|--8-6-8---|
|--6---6-6-6-6-6-6-6--|--6---6-6-|


 4/4
|-----------------------|----------------|
|-----6----------6------|-----6----------|
|-7-8---8-7--7-8---8-7--|-7-8---8-7------|
|-8-8-8-8-8--8-8-8-8-8--|-8-8-8-8-8------|
|-----------------------|----------------|
|-6-6-6-6-6--6-6-6-6-6--|-6-6-6-6-6------|


 3/4                          2/4
|--------------|-------------|--------------|
|-----7-6-11---|-------11-11-|-13-11------6-|
|-----7-6-11---|-8-----12-12-|-13-12------7-|
|-9-7-7-6-11-8-|-8-----13-13-|-13-13------8-|
|-9-7-5-4--9-8-|-6-----13-13-|-11-13------8-|
|-7-5--------6-|-------11-11-|----11-10-9-6-|


                      Faster Q.=138
 4/4                   12/8
|-----4-4-8-8-8-8-3-3-|--------------|
|-8-8-4-4-7-7-7-7-3-3-|--------------|
|-8-8-5-5-7-7-7-7-3-3-|--------------|
|-8-8-6-6-7-7-7-7-5-5-|-8---8-8-8----|
|-6-6-6-6-5-5-5-5-5-5-|-8---8-8-8----|
|-----4-4---------3-3-|-6---6-6-6----|


  Gtrs II, III
|-----------------------|-------------------|-----------------------------||
|-----------------------|-------------------|-----------------------------||
|-----------------------|-------------------|-----------------------------||
|-8---8--8--8------8----|-8---8--8-8---8--8-|--8--8-8-8-8-8--8--8-8-------||
|-8---8--8--8------8----|-8---8--8-8---8--8-|--8--8-8-8-8-8--8--8-8----3s=||
|-6---6--6-(6)--6-(6)---|-6---6--6-6---6--6-|-(6)-6-6-6-6-6-(6)-6-6-6-----||


     PM|                                  ~~~~~~
|-----------------------|-----------------------------|-----------------------|
|-----------------------|-----------------------------|-----------------------|
|-----------------------|-----------------------------|-----------------------|
|-----------------------|-----------------------------|-----------------------|
|-6--------------3-5-6--|-6-------------3-------------|-6--------------3-5-6--|
|----3-(3)-4--6---------|----3-(3)-4--6---6-(6)--(6)\-|----3-(3)-4--6---------|


                             Bridge
                  ~~~~~~
|--------------------------||--------------|------------------|
|--------------------------||--------------|------------------|
|--------------------------||--------------|----------8---8---|
|--------------------------||-8------------|-(8)------8---8---|
|-8-------------5----------||-8------------|-(8)------6---6---|
|----5-(5)-6--8---8-(8)--8-||-6------------|-(6)--------------|


                         6/8           12/8
             ~              ~~~~~~~~
|-----------------------|-------------|--------------------|
|-----------------------|-------------|--------------------|
|-----------------------|---6--(6)p=0-|--------------------|
|-8---(8)s=3s8--6-8-6---|-------------|-8------(8)---8\----|
|-8---(8)-------------8-|-4-----------|-8------(8)---------|
|-6---(6)---------------|-------------|-6------(6)-------0-|


|---------------------------|-------------------------|-------------------|
|---------------------------|-4------(4)--4-(4)-3-(3)-|-------------------|
|---------------------------|-5------(5)--5-(5)-3-(3)-|-------------------|
|-3---(3)-------------------|-6------(6)--6-(6)-5-(5)-|-3------(3)---(3)--|
|-1---(1)--1s6-6--6-(6)-6p0-|-6------(6)--6-(6)-5-(5)-|-3------(3)---(3)--|
|---------------------------|-4------(4)--4-(4)-3-(3)-|-1------(1)----1p0-|


|-----------------------|---------------------|------------------------|
|-3---------------------|---------------------|-3---3------------------|
|-3---------------------|---------------------|-3---3------------------|
|-3------3h5--3-(3)-----|---------------------|-3---3---------3-5p3----|
|-1-----------------5p3-|------------------3--|-1---1--3-3s5--------5\-|
|-----------------------|-1------(1)---(1)----|--------x---------------|


|------------------|------------------------|------------------------|
|------------------|------------------------|------------------------|
|-----------3------|------------3---(3)-----|------------------------|
|-----------3------|----------x-3---(3)-----|------------------------|
|-----------1------|----------x-1---(1)-1s6-|-6--------------3-5-6---|
|-1---(1)p0--------|-1---(1)--x-------------|----3-(3)-4--6----------|


                  ~~~~~~
|-----------------------------|-----------------------|-----------------------|
|-----------------------------|-----------------------|-----------------------|
|-----------------------------|-----------------------|-----------------------|
|-----------------------------|-----------------------|-----------------------|
|-6-------------3-------------|-6--------------3-5-6--|-8--------------5-7-8--|
|----3-(3)-4--6---6-(6)--(6)\-|----3-(3)-4--6---------|----5-(5)-6--8---------|


      F#        G#     A#   B5                       Ab5
  Gtr I
      |  |      |    | |    |                        |
      /  /      /    / /    /                        /

  Gtrs II, III
      ~~~~~~    ~                                                        ~
|-------------------------|------------------------|------------------------|
|-------------------------|------------------------|------------------------|
|---------------5----5-6--|-------------6---6-8-9--|---------------------3--|
|---6-8-(8)-6-8----8------|-------6-8-9---9--------|-----------3-4p3-4-6----|
|-9-----------------------|-6h7-9------------------|-----3-4-6--------------|
|-------------------------|------------------------|-4h6--------------------|


                             H
|----------------------------|
|-----------------------8-9--|
|------7----7-8-10-8-10------|
|-8-10---10-------------5-6--|
|------5----5-6--8-6--8------|
|-6--8----8------------------|
|
| Gtr I
|----------------------------|
|----------------------------|
|----------------------------|
|-8--------------------------|
|-8--------------------------|
|-6--------------------------|


 .=H
                               9/8
|-----------------------------|----------------------||
|-----------------------------|----------------------||
|-----------------------------|----------------------||
|-x-8-8-(8)-----(8)-----------|-(8)-----------(8)----||
|-x-8-8-(8)-----(8)-----------|-(8)-----------(8)----||
|-x-6-6-(6)-----(6)-----------|-(6)-----------(6)----||
|
|-----------------------------|----------------------||
|-----------------------------|----------------6-----||
|-----------------------------|-------5---7----------||
|-----------------------5-6-5-|--6--8---8---8-----8--||
|-----5-----5-6--8--6-8-------|----------------------||
|-6-8----8--------------------|----------------------||


 Outro
  A Tempo Q=72
  Eb         BBb/D        D   Cm                 G/BCm
 4/4
  Gtr I
  |        | ||         | |     |          |     |  |
  /        / o/         / o     /          /     /  /

  Gtrs III, IV
           ~~           ~~                       ~~~~~~~
|---------------------------|--------------------------|
|-------8-11-----------11---|-(11)------8-13s(9)-8--8--|
|-----8-----------7-10------|---------8----------7--8--|
|---8-----------8-----------|------10------------------|
|---------------------------|--------------------------|
|---------------------------|--------------------------|
|
| Gtr II
|                                                   ~
|---------------------------|--------------------------|
|---------------------------|--------------------------|
|---------------------------|--------------------------|
|---------------------------|--------------------------|
|-6-----------5-----------5-|---3----------------2--3--|
|---------------------------|--------------------------|
|
| Gtr V
|---------------------------|--------------------------|
|---------------------------|--------------------------|
|---------------------------|--------------------------|
|---------------------------|--------------------------|
|---------------------------|--------------------------|
|---------------------------|--------------------------|


  G/B    Cm Bb     Eb(type 2)
  |      |  |      |
  /      /  /      /

 ~~~~    ~~
|-------------------------------|
|-8----9-8--8-8h=9-8-----10h11--|
|-7---10-8--7-8-10-8-----10-12--|
|-------------------------------|
|-------------------------------|
|-------------------------------|
|
|        ~
|-------------------------------|
|-------------------------------|
|-------------------------------|
|-------------------------------|
|-2s3s=5-3---------6------------|
|-----------6-------------------|
|
|--------------------/15--------|
|--------------------/16--------|
|--------------------/15--------|
|-------------------------------|
|-------------------------------|
|-------------------------------|


  Gtrs III, IV
             ~~~~~~~~~~~~~~~~~~~~~~~~~~~~~
|-----------------------------------|-----------------------------------|
|-10s==3-----3----------------------|-(3)-------------------------------|
|-11---7-----7----------------------|-(7)-------------------------------|
|-----------------------------------|-----------------------------------|
|-----------------------------------|-----------------------------------|
|-----------------------------------|-----------------------------------|
|
| Gtr II
|  ~~~~~~~~~~~~~~~~~~~~~~~~~~~~~~~~~                         ~~
|-14--15-17-17pb18===========(17)r\-|-11-------11-----(11)--11----------|
|-15--17-19-19pb20===========(19)r\-|-13-------13b15==(13)rs11----------|
|-14--------------------------------|-13s======15s==========12----------|
|-----12----------------------------|-----------------------------------|
|-----------------------------------|-----------------------------------|
|-----------------------------------|-----------------------------------|
|
| Gtr I
|-----------------------------------|-----------------------------11----|
|-10-----10-11------------11--------|----11-----------------11----------|
|-11--11----12---------12-----------|-------13--------------12----------|
|-12--12----12------12--------------|----------13--------------13----13-|
|-12--------10----------------------|-11--------------------------------|
|-10--------------------------------|-----------------------------------|


|----------------------------|------------------|
|----------------------------|------------------|
|----------------------------|------------------|
|----------------------------|------------------|
|----------------------------|------------------|
|----------------------------|------------------|
|
|----(11)-----------10-------|------------------|
|-11s=13------13s15-11-------|------------------|
|----(12)-----12s15-12-------|------------------|
|----------------------------|------------------|
|----------------------------|------------------|
|----------------------------|------------------|
|
|-----------3------------3---|-------3----------|
|-----------4--------3-------|-4---4---3-----3--|
|---------5----5-----3-------|-5-5-----3---3----|
|------5-------------5-5---5-|-5-------5-5------|
|------3-------------5-------|-3-------5--------|
|--------------------3-------|---------3--------|


  Gtr I
|-3-----3------|-----------|
|-4---4---4----|-^4--------|
|-5-5-----4----|-^5--------|
|-5-------6----|-^6--------|
|-3-------6----|-----------|
|---------4----|-^6--------|


|-------------------------|--------------------------|
|-11-------11-13-15-13-15-|-11-------11-13-15-13-15--|
|-12----12----13----13----|-12----12----14----14-----|
|-13-13-------------------|-13-13-------13----13-----|
|-13----------------------|-13-----------------------|
|-11----------------------|-11-----------------------|


                                         H.=H
|-----------------------8-|-----------------------|-------------------13----|
|-11-------11-11----11----|------------8-11-9-9-8-|--------------10------10-|
|-10----10----10----10----|--9------9-------------|--9-9------10---------10-|
|-12-12-------11----11----|-10-10--------11-------|-10---10-8--7------------|
|-13----------------------|-10--------------------|-10---------8------------|
|-10-----------9----------|--8--------------------|--8----------------------|
|
| Gtrs II, III            Gtr II
|                                   ~~~~                               ~~
|-------------------------|-----------------------|-------------------------|
|-------------14s13-13s11-|-----------------------|-------------------------|
|-------------15s13-13s12-|-12----(12)------------|-12s8------------9s10----|
|-------------------------|-----------------------|------10-8--7------------|
|-------------------------|-----------------------|-------------------------|
|-------------------------|-----------------------|-------------------------|


                H.=H
|------13----13----13----13-|-------*|
|--15-----13----12----11----|-10----*|
|--15-----14----13----12----|-10----*|
|---------------------------|-10----*|
|---------------------------|--8----*|
|---------------------------|-------*|
|
|---------------------------|-------*|
|---------------------------|-------*|
|-(10)----------------------|-------*|
|---------------------------|-------*|
|---------------------------|-------*|
|---------------------------|-------*|





Comments


Popular Queen tabs & chords
Another One Bites The Dust 1 Bass Tabs
Fat Bottomed Girls Bass Tabs
My Baby Does Me Bass Tabs
Man On The Prowl Chords
A Winter's Tale Tabs
Bohemian Rhapsody 11 Tabs
Melancholy Blues Tabs
Son And Daughter Tabs
Good Company Ukulele
Great Pretender Ukulele


Song lyrics



↑ Back to top | Tablatures and chords are parodies/interpretations of the original songs. You may use it for private study, scholarship, research or language learning purposes only
© 2014 AZChords.com Contact us | Privacy policy | DMCA | Add/correct tabs | Request tabs | Top 50 tabs