>
 >
A Kind Of Magic

A Kind Of Magic Bass Tabs

Queen - A Kind Of Magic chords, tabs, tablatures, lyrics

Guitar lessons | Add/correct | Request | Top 50 tabs Artists:  A B C D E F G H I J K L M N O P Q R S T U V W X Y Z 0-9

A Kind Of Magic Bass Tabs – Queen

CD, Sheet music, Poster

Do you like A Kind Of Magic? Share with your friends now
Bass TabsBass Tabs v2ChordsChords v2Chords v3Chords v4TabsTabs v2Ukulele
G|----------------|----------------|----------------|----------------|----------------|----------------|
D|----------------|----------------|----------------|----------------|----------------|----------------|
A|----------------|----------------|--------------0-|2---2---2-------|2---2---2-------|5---5---5-------|
E|5---5---5-0-2-0-|5---5---5-0-2-0-|5---5---5-0-2---|----------4-2-4-|----------4-2-4-|----------7-5-7-|

G|----------------|----------------|----------------|----------------|----------------|
D|----------------|----------------|----------------|----------------|----------------|
A|5---5---5-------|----------------|----------------|----------------|----------------|
E|----------7-5-7-|5---5---5-0-2-0-|5---5---5-0-2-0-|5---5---5-0-2-0-|5---5---5-0-2-0-|

G|----------------|----------------|----------------|----------------|---------------|--------------|
D|----------------|----------------|----------------|----------------|--7-4-2--------|--------------|
A|2---2---2-------|2---2---2-------|5---5---5-------|----------------|----------4--2-|--------------|
E|----------4-2-4-|----------4-2-4-|----------7-5-7-|5---5---5-0-2-0-|5--------------|2---2-2---2-2-|

G|-------------|--------------|--------------|------------|--------------|-----------------|
D|-------------|--------------|--------------|------------|4-------------|-----------------|
A|-------------|5------5------|5---5-5-4-2-0-|----------4-|-----4------5-|577-7-7-7-7-7----|
E|2---2-2-2----|-----5------5-|--------------|2---2-2-----|-------2------|---------------7-|

G|----------------|----------------|-----------------|----------------|----------------|---------------|
D|----------------|----------------|*----------------|----------------|---------------*|---------------|
A|----------7-7-7-|5-5-----5-5-----|*5-5-----5-5-----|----------------|---------------*|---------------|
E|0-0-0-0-0-------|----7-5-----7-5-|-----7-5-----7-5-|5-5-2-0-5-5-2-0-|5-5-2-0-5-5-2-0-|0--0-0-0-0-0-0-|

G|----------------|----------------|----------------|----------------|----------------|----------------|
D|----------------|----------------|----------------|----------------|--------4-2-----|----------------|
A|----------------|5-5-----5-5-----|5-5-----5-5-----|------4-------4-|------4-----4---|----------------|
E|3-3-3-3-3-3-3-3-|----7-5-----7-5-|----7-5-----7-5-|0-0-0---0-0-0---|0-0-0---------0-|5---5---5-0-2-0-|

G|----------------|----------------|----------------|----------------|----------------|----------------|
D|----------------|----------------|----------------|----------------|----------------|----------------|
A|----------------|2---2---2-------|2---2---2-------|5---5---5-------|5---5---5-------|----------------|
E|5---5---5-0-2-0-|----------4-2-4-|----------4-2-4-|----------7-5-7-|----------7-5-7-|5---5---5-0-2-0-|

G|----------------|----------------|----------------|----------------|----------------|-----------------|
D|----------------|----------------|----------------|----------------|----------------|-----------------|
A|----------------|----------------|----------------|2---2---2-------|2---2---2-------|5---5---5--------|
E|5---5---5-0-2-0-|5---5---5-0-2-0-|5---5---5-0-2-0-|----------4-2-4-|----------4-2-4-|----------7-5-7--|

G|--------------|---------------|---------------|----------------|---------------|-----------------|
D|--------------|---------------|---------------|----------------|---------------|-----------------|
A|5---5-55------|---------------|---------------|5---5---5-------|5---5-55-------|-----------------|
E|--------0-2-3-|5---5-55-0-2-0-|5---5-55-0-2-0-|----------7-5-7-|---------7-5-7-|5-5-2-0-5-5-2-0--|

G|----------------|----------------|----------------|----------------|-----------------|---------------|
D|----------------|----------------|----------------|----------------|-----------------|---------------|
A|----------------|5---5---5-------|5---5---5-------|----------------|-----------------|5---5-55-------|
E|5-5-2-0-5-5-2-0-|----------7-5-7-|----------7-5-7-|5-5-2-0-5-5-2-0-|5-5-2-2/-5-5-2-0-|---------5-7-5-|

G|---------------|----------------|---------------|----------------|----------------|---------------|
D|---------------|----------------|---------------|----------------|----------------|---------------|
A|5---5--5-------|----------------|---------------|5---5---5-------|5---5---5-------|---------------|
E|------5--5-7-5-|5---5---5-0-2-0-|5---5-55-0-7-5-|----------7-5-7-|-------5--5-7-5-|5---5-55-0-2-0-|

G|---------------|----------------|----------------|--------------|--------------|--------------|
D|---------------|----------------|----------------|--------------|--------------|--------------|
A|---------------|----------2-4-2-|------------2-3-|5---5-55------|5---5--5----5-|--------------|
E|5---5-55-0-2-0-|0---0---0-------|3---3---3-3-----|--------5-7-5-|------5-5-7---|0---0---0---0-|

G|---------------|-----------------|----------------|----------------|----------------|---------------|
D|--4--2---------|*----------------|----------------|---------------*|----------------|---------------|
A|---------4-2-4-|*5-5-----5-5-----|5-5-----5-5-----|---------------*|----------------|---------------|
E|0--------------|-----7-5-----7-5-|----7-5-----7-5-|5-5-2-0-5-5-2-0-|0---0---0---0---|3---3-03---3-3-|

G|--------------|--------------|-----------------|-------------|----------------|----------------|
D|--------------|--------------|-----------------|-------------|----------------|----------------|
A|5---5-55------|5---5--5------|7---7---7--10/14-|-------------|5-5-----5-5-----|5-5-----5-5-----|
E|--------7-5-7-|------5--7-5--|-----------------|0------------|----7-5-----7-5-|----7-5-----7-5-|

G|----------------|----------------|----------------|----------------|----------------|-------------|
D|----------------|----------------|----------------|----------------|----------------|-------------|
A|----------------|----------------|5-5-----5-5-----|5-5-----5-5-----|----------------|-------------|
E|5-5-2-0-5-5-2-0-|5-5-2-0-5-5-2-0-|----7-5-----7-5-|----7-5-----7-5-|5-5-2-0-5-5-2-0-|5------------|

G|-----------------|
D|-----------------|
A|-----------------|
E|-----------------|

 Repeat the following until fade at end

G|----------------|----------------|----------------|----------------|
D|----------------|----------------|----------------|----------------|
A|5-5-----5-5-----|5-5-----5-5-----|----------------|----------------|
E|----7-5-----7-5-|----7-5-----7-5-|5-5-2-0-5-5-2-0-|5-5-2-0-5-5-2-0-|


Thanks for playing the best instrument ever!!!





Comments


Popular Queen tabs & chords
Delilah Bass Tabs
Made In Heaven Chords
Play The Game Chords
Princes Of The Universe Chords
Bohemian Rhapsody 9 Tabs
Crazy Little Thing Called Love 2 Tabs
Fight From The Inside Tabs
Killer Queen 1 Tabs
Rock It Tabs
Bicycle Race Ukulele


Song lyrics



↑ Back to top | Tablatures and chords are parodies/interpretations of the original songs. You may use it for private study, scholarship, research or language learning purposes only
© 2014 AZChords.com Contact us | Privacy policy | DMCA | Add/correct tabs | Request tabs | Top 50 tabs