>
 >
 >
Lo Que Tus SueñOs Cuentan 1

Lo Que Tus SueñOs Cuentan 1 Guitar Tabs

Qbo - Lo Que Tus SueñOs Cuentan 1 chords, tabs, tablatures, lyrics

Guitar lessons | Add/correct | Request | Top 50 tabs Artists:  A B C D E F G H I J K L M N O P Q R S T U V W X Y Z 0-9

Lo Que Tus SueñOs Cuentan 1 Guitar Tabs – Qbo

CD, Sheet music, Poster

Do you like Lo Que Tus SueñOs Cuentan 1? Share with your friends now
Bass TabsTabsTabs v2
Esta rola esta muy facil, tienen q usar el dely en el intro y cambiar E x D

Intro
e-10(10)-----10-----------------------10-(10)-----10---------------------|
B---------10-----10-----------------------------10-----10----------------|
G--------------------11-11(11)-(11)------------------------11-11---------|
D--------------------------------------------------------------------9-9-|
A------------------------------------------------------------------------|
D------------------------------------------------------------------------|


e----------------------------------------------------------------------------|
B----------------------------------------------------------------------------|
G----------------------------------------------------------------------------|
D----------------------------------------------------------------------------|
A-11-9-9-12--9-9-9---11-9-9-14--9-9-9----11-9-9-12--9-9-9---11-9-9-10--9-9-9-|
D-11-9-9-12--9-9-9---11-9-9-14--9-9-9----11-9-9-12--9-9-9---11-9-9-10--9-9-9-|

e-----------------------------------------------------------------------------|
B-----------------------------------------------------------------------------|
G-----------------------------------------------------------------------------|
D-----------------------------------------------------------------------------|
A-11-9-9-12--9-9-9---11-9-9-14--9-9-9----11-9-9-12--9-9-9---11-9-9-10--9-9-9--|
D-11-9-9-12--9-9-9---11-9-9-14--9-9-9----11-9-9-12--9-9-9---11-9-9-10--9-9-9--|


P.M.
e-----------------------------------------------|
B-----------------------------------------------|
G-----------------------------------------------|
D-----------------------------------------------|
A-9-9-11-9--9-12-9-9----9-9-11-9--9-12-9-9-11-9-|
D-9-9-11-9--9-12-9-9----9-9-11-9--9-12-9-9-11-9-|
P.M.
e----------------------------------------------------------|
B----------------------------------------------------------|
G----------------------------------------------------------|
D----------------------------------------------------------|
A-9-9-11-9--9-12-9-9----17-17-17-17-17--16-16-16--14-14-14-|
D-9-9-11-9--9-12-9-9----17-17-17-17-17--16-16-16--14-14-14-|

P.M.
e-----------------------------------------------|
B-----------------------------------------------|
G-----------------------------------------------|
D-----------------------------------------------|
A-9-9-11-9--9-12-9-9----9-9-11-9--9-12-9-9-11-9-|
D-9-9-11-9--9-12-9-9----9-9-11-9--9-12-9-9-11-9-|
P.M.
e----------------------------------------------------------|
B----------------------------------------------------------|
G----------------------------------------------------------|
D----------------------------------------------------------|
A-9-9-11-9--9-12-9-9----17-17-17-17-17--16-16-16--14-14-14-|
D-9-9-11-9--9-12-9-9----17-17-17-17-17--16-16-16--14-14-14-|


e----------------------------------------------------------------------------|
B----------------------------------------------------------------------------|
G----------------------------------------------------------------------------|
D----------------------------------------------------------------------------|
A-11-9-9-12--9-9-9---11-9-9-14--9-9-9----11-9-9-12--9-9-9---11-9-9-10--9-9-9-|
D-11-9-9-12--9-9-9---11-9-9-14--9-9-9----11-9-9-12--9-9-9---11-9-9-10--9-9-9-|


P.M.
e-----------------------------------------------|
B-----------------------------------------------|
G-----------------------------------------------|
D-----------------------------------------------|
A-9-9-11-9--9-12-9-9----9-9-11-9--9-12-9-9-11-9-|
D-9-9-11-9--9-12-9-9----9-9-11-9--9-12-9-9-11-9-|
P.M.
e----------------------------------------------------------|
B----------------------------------------------------------|
G----------------------------------------------------------|
D----------------------------------------------------------|
A-9-9-11-9--9-12-9-9----17-17-17-17-17--16-16-16--14-14-14-|
D-9-9-11-9--9-12-9-9----17-17-17-17-17--16-16-16--14-14-14-|

P.M.
e-----------------------------------------------|
B-----------------------------------------------|
G-----------------------------------------------|
D-----------------------------------------------|
A-9-9-11-9--9-12-9-9----9-9-11-9--9-12-9-9-11-9-|
D-9-9-11-9--9-12-9-9----9-9-11-9--9-12-9-9-11-9-|
P.M.
e----------------------------------------------------------|
B----------------------------------------------------------|
G----------------------------------------------------------|
D----------------------------------------------------------|
A-9-9-11-9--9-12-9-9----17-17-17-17-17--16-16-16--14-14-14-|
D-9-9-11-9--9-12-9-9----17-17-17-17-17--16-16-16--14-14-14-|


Coro
e-------------------------------------|
B-------------------------------------|
G-----7---------7--------7---------7--|
D-9-----7---7----7---5----7---7----7--|
A-9---------7---------5--------7------|
D-9---------7---------5--------7------|

e-------------------------------------|
B-------------------------------------|
G-----7---------7--------7---------7--|
D-9-----7---7----7---5----7---7----7--|
A-9---------7---------5--------7------|
D-9---------7---------5--------7------|


P.M.
e-----------------------------------------------|
B-----------------------------------------------|
G-----------------------------------------------|
D-----------------------------------------------|
A-9-9-11-9--9-12-9-9----9-9-11-9--9-12-9-9-11-9-|
D-9-9-11-9--9-12-9-9----9-9-11-9--9-12-9-9-11-9-|
P.M.
e----------------------------------------------------------|
B----------------------------------------------------------|
G----------------------------------------------------------|
D----------------------------------------------------------|
A-9-9-11-9--9-12-9-9----17-17-17-17-17--16-16-16--14-14-14-|
D-9-9-11-9--9-12-9-9----17-17-17-17-17--16-16-16--14-14-14-|

P.M.
e-----------------------------------------------|
B-----------------------------------------------|
G-----------------------------------------------|
D-----------------------------------------------|
A-9-9-11-9--9-12-9-9----9-9-11-9--9-12-9-9-11-9-|
D-9-9-11-9--9-12-9-9----9-9-11-9--9-12-9-9-11-9-|
P.M.
e----------------------------------------------------------|
B----------------------------------------------------------|
G----------------------------------------------------------|
D----------------------------------------------------------|
A-9-9-11-9--9-12-9-9----17-17-17-17-17--16-16-16--14-14-14-|
D-9-9-11-9--9-12-9-9----17-17-17-17-17--16-16-16--14-14-14-|


Coro
e-------------------------------------|
B-------------------------------------|
G-----7---------7--------7---------7--|
D-9-----7---7----7---5----7---7----7--|
A-9---------7---------5--------7------|
D-9---------7---------5--------7------|

e-------------------------------------|
B-------------------------------------|
G-----7---------7--------7---------7--|
D-9-----7---7----7---5----7---7----7--|
A-9---------7---------5--------7------|
D-9---------7---------5--------7------|


Interlude
e-------------------------------------|
B-------------------------------------|
G-------------------------------------|
D-------------------------------------|
A----9-9--------9-9-----------9-9-12--|
D-9--9-9----9---9-9-----------9-9-12--|

e---------------------------------------------------|
B---------------------------------------------------|
G---------------------------------------------------|
D---------------------------------------------------|
A-9-9-11-9-12---9-9-11-9-12---9-9-11-9-12----9-9-12-|
D-9-9-11-9-12---9-9-11-9-12---9-9-11-9-12----9-9-12-|

e---------------------------------------------------|
B---------------------------------------------------|
G---------------------------------------------------|
D---------------------------------------------------|
A-9-9-11-9-12---9-9-11-9-12---9-9-11-9-12----9-9-12-|
D-9-9-11-9-12---9-9-11-9-12---9-9-11-9-12----9-9-12-|


Solo
e-10-9---------------------10-9-------------------------------|
B-------10-12-------------------10-12------------10~~---------|
G---------------11(11)------------------11-11-9---------------|
D-------------------------------------------------------------|
A-------------------------------------------------------------|
D-------------------------------------------------------------|

e-10-9-----12--------12/(13)12--------------------------------|
B-------10-----12-----------------12h13-12-10-10-10-9-9/10-10-|
G-------------------------------------------------------------|
D-------------------------------------------------------------|
A-------------------------------------------------------------|
D-------------------------------------------------------------|


Coro
e-------------------------------------|
B-------------------------------------|
G-----7---------7--------7---------7--|
D-9-----7---7----7---5----7---7----7--|
A-9---------7---------5--------7------|
D-9---------7---------5--------7------|

e-------------------------------------|
B-------------------------------------|
G-----7---------7--------7---------7--|
D-9-----7---7----7---5----7---7----7--|
A-9---------7---------5--------7------|
D-9---------7---------5--------7------|

e-------------------------------------|
B-------------------------------------|
G-----7---------7--------7---------7--|
D-9-----7---7----7---5----7---7----7--|
A-9---------7---------5--------7------|
D-9---------7---------5--------7------|

e-------------------------------------|
B-------------------------------------|
G-----7---------7--------7---------7--|
D-9-----7---7----7---5----7---7----7--|
A-9---------7---------5--------7------|
D-9---------7---------5--------7------|





Comments


Popular Qbo tabs & chords
Al Fin No Tengo Mas Cadenas Tabs
El Juego Tabs
Hasta El Final Tabs
Lo Que Tus SueñOs Cuentan Tabs
Nada Que Pensar Tabs
No Mas 4 Tabs
One Last Time Tabs
Rien Tabs
Sangre De Tu Sangre Tabs
Verdad En Tus Mentiras Tabs


Song lyrics



↑ Back to top | Tablatures and chords are parodies/interpretations of the original songs. You may use it for private study, scholarship, research or language learning purposes only
© 2014 AZChords.com Contact us | Privacy policy | DMCA | Add/correct tabs | Request tabs | Top 50 tabs