» » »

Punchline, Heart Transplant Tabs (ver.2)

Artists:  A B C D E F G H I J K L M N O P Q R S T U V W X Y Z # 

Heart Transplant Tabs (ver.2)

Punchline Tabs
Rating:
0/5 (0 votes)
Heart Transplant lessons Tabs too difficult? Try these video lessons and learn fast
                ----------------------------------------------------------------------------
                         Punchline - Heart Transplant
                                Action(2004)
----------------------------------------------------------------------------
Credit to Gabe for tabbing
JesseLaceyIsGod


tuning: standard (eBGDAE)

 x - mute
 p - pull off
 h - hammer on
 ~ - ring out
 * - harmonic




Intro
e|-------------------------------------------|
B|------------------------------------12~~~--|
G|---8--------8--------------8---------------|
D|------9--------9---------------9-----------|
A|-------------------------------------------|
E|---7-----7--7-----7--7h9-------------------|


Alternative way to play intro
e|------------------------------------7--|
B|--4---------4-------------4------------|
G|------4----------4---------------------|
D|---------------------------------------|
A|--2------2--2-------2------------------|
E|-----------------------2------4-----0--|

e|--------------------------|
B|--------------------------|
G|--4~~~-------------12/13--|
D|--4~~~-------------x--x---|
A|--2~~~-------------10/11--|
E|--------------------------|
   "If you think that I don't notice......" 


pre verse
e|--------------------------------------------------------------|
B|--------------------------------------------------------------|
G|--xx4--xx4--xx4--xx4------------------------------------------|
D|--xx4--xx4--xx4--xx4--xx6--xx6--xx6--xx6--xx4--xx4--xx4--xx4--|
A|--xx2--xx2--xx2--xx2--xx6--xx6--xx6--xx6--xx4--xx4--xx4--xx4--|
E|----------------------xx4--xx4--xx4--xx4--xx2--xx2--xx2--xx2--|

e|-----------------|
B|-----------------|
G|-----------------|
D|--2-2-2-2-2-2-2--|
A|--2-2-2-2-2-2-2--|
E|--0-0-0-0-0-0-0--|


verse x's 2
e|-------------------------|
B|-------------------------|
G|--6------4---------------|
D|--6---6--4--2---6--4--2--|
A|--4---6--2--2---6--4--2--|
E|------4-----0---4--2--0--|
  "Go to hell who needs you"


chorus x's 4
e|-----------------|
B|-----------------|
G|--------------6--|
D|--6---2---4---6--|
A|--6---2---4---4--|
E|--4---0---2------|


Intro
e|-------------------------------------------|
B|------------------------------------12~~~--|
G|---8--------8--------------8---------------|
D|------9--------9---------------9-----------|
A|-------------------------------------------|
E|---7-----7--7-----7--7h9-------------------|


e|-----------------------------------------|
B|-----------------------------------------|
G|--x-x--6----x-x--8---x-x--9---x-x-x-x-x--|
D|--x-x--6----x-x--8---x-x--9---x-x-x-x-x--|
A|--x-x--4----x-x--6---x-x--7---x-x-x-x-x--|
E|-----------------------------------------|

e|--------|
B|--------|
G|--4-----|
D|--4--2--|
A|--2--2--|
E|-----0--|
listen for strumming here 

e|------------------------------------------------------------|
B|------------------------------------------------------------|
G|--x-x-6-x-x-6---x-x-8--x-x-8--x-x-9--x-x-9--x-x-11--x-x-11--|
D|--x-x-6-x-x-6---x-x-8--x-x-6--x-x-9--x-x-9--x-x-11--x-x-11--|
A|--x-x-4-x-x-4---x-x-6--x-x-6--x-x-7--x-x-7--x-x-9---x-x-9---|
E|------------------------------------------------------------|

e|------------------|
B|------------------|
G|------4--6--4-----|
D|--6---4--6--4--2--|
A|--6---2--4--2--2--|
E|--4------------0--|


2nd chorus
e|-----------------|----------------------|
B|-----------------|----------------------|
G|--4--------------|--4-------------4-----|
D|--4---4---6---2--|--4--4--6-------4--2--|
A|--2---4---6---2--|--2--4--6-------2--2--|
E|------2---4---0--|-----2--4--2h4-----0--|
play 2 times


e|-----------------------------------|
B|-----------------------------------|
G|--4-4--4---4-4--4--4-4--4--4-4--4--|
D|--4-4--x---4-4--x--4-4--x--4-4--x--|
A|--2-2--2---2-2--2--2-2--2--2-2--2--|
E|-----------------------------------|
    x x      x x     x x     x x


e|-------------------|
B|-------------------|
G|--4--4/9-9-9\8-----|
D|--4--x/x-x-x\x--2--|
A|--2--2/7-7-7\6--2--|
E|----------------0--|



1st guitar
e|------------------------------------------------|
B|------------------------------------------------|
G|------------------------------------------------|
D|---6-6-----6--6--------2-2---2-2----------------|
A|---6-6-----6--6--------2-2---2-2----------------|
E|---4-4-----4--4--------0-0---0-0----------------|


2nd guitar
e|------------------------------------------------|
B|--------5b--------4b-------------------5-----5--|
G|------------------------------------5-----5-----|
D|------------------------------------------------|
A|------------------------------------------------|
E|------------------------------------------------|
                                      *  *  *  *



e|-------------------|
B|-------------------|
G|--4--4/9-9-9\8-----|
D|--4--x/x-x-x\x--2--|
A|--2--2/7-7-7\6--2--|
E|----------------0--|

e|--------|
B|--------|
G|--4-----|
D|--4--2--|
A|--2--2--|
E|-----0--|
listen for strumming here 

e|-------------------------|
B|-------------------------|
G|-------------------------|
D|-----2---------4---------|
A|--4----4--4/6----6--7~~--|
E|-------------------------|

e|-----------|
B|-----------|
G|--8--9--6--|
D|--x--x--x--|
A|--6--7--4--|
E|-----------|

2nd chorus
e|-----------------|----------------------|
B|-----------------|----------------------|
G|--4--------------|--4-------------4-----|
D|--4---4---6---2--|--4--4--6-------4--2--|
A|--2---4---6---2--|--2--4--6-------2--2--|
E|------2---4---0--|-----2--4--2h4-----0--|
play 2 times



e|-----------------|
B|-----------7-----|
G|--3h4--4------4--|
D|-----------------|
A|-----------------|
E|-----------------|
repeat 13 times 



1st guitar
e|-----------------|
B|-----------------|
G|----------4------|
D|--6---2---4---4--|
A|--6---2---2---4--|
E|--4---0-------2--|
played 7 times

2nd guitar 
after the 5th time the 1st guitar  plays the rythem
this is played 2 times with distortion. then the song
ends with this Clean twice and ends on a G# power chord.
e|--------------------------------------------------------|
B|--------------------------------------------------------|
G|------------------------------------4-------------------|
D|----------6------------2---------4----4----------4------|
A|-------6-----6------2-----2---2--------------4-------4--|
E|--2/4------------0------------------------2-------------|

  
            

comments powered by Disqus
↑ Back to top | Punchline Tabs for Heart Transplant. Lyrics for acoustic guitar and electric guitar. Tablatures and chords are parodies/interpretations of the original songs. You may use it for private study, scholarship, research or language learning purposes only