» » »

Punchline, Flashlight Bass tabs (ver.1)

Artists:  A B C D E F G H I J K L M N O P Q R S T U V W X Y Z # 

Flashlight Bass tabs (ver.1)

Punchline Tabs
Rating:
5/5 (2 votes)
Flashlight lessons Tabs too difficult? Try these video lessons and learn fast
                
great band. even though most of its kinda easy, still, its fun to play along.

Tuning: standard

intro - :00
G|------------------|
D|------------------|
A|--------55-55-5\--|
E|--2~~~------------|

Chorus :09 - Rest

Pre-verse - :26
G|-------------------------------------------------------------------------|
D|-------------------------------------------------------------------------|
A|--------------------5555555555555555-------------------5555555555555555--|
E|--22222222-55555555------------------22222222-55555555-------------------|

G|----------------------------------------------------------------------------|
D|----------------------------------------------------------------------------|
A|------------------5-5-5-5-5-5-5-5-----------------5-5-5-5-5-5-5-5-55-55-5\--|
E|--2-2-2-2-5-5-5-5-----------------2-2-2-2-5-5-5-5---------------------------|

Verse 1 - 0:43
G|--------------------------------------------------------|
D|--------------------------------------------------------|
A|------------------------5-------------------------------|
E|--2-x-x-x-xxx2-x-x-x-xxx-xx5xx0xx5xx2-x-x-x-xxx2-x-x-x--|

G|----------------------------------------------|
D|----------------------------------------------|
A|-----5-----------5-----------5----------------|
E|--xxx-xx5xx0xx5xx-xx5xx0-000--xx5xx0xx5xx0~~--|

chorus  1:05
G|-------------------------------------------------------------------------|
D|-------------------------------------------------------------------------|
A|--------------------5555555555555555-------------------5555555555555555--|
E|--22222222-55555555------------------22222222-55555555-------------------|

G|-------------------------------------------------------------------------|
D|-------------------------------------------------------------------------|
A|--------------------5555555555555555-------------------5555555555555555--|
E|--22222222-55555555------------------22222222-55555555-------------------|

verse 2 - 1:21
G|--------------------------------------------------------|
D|--------------------------------------------------------|
A|------------------------5-------------------------------|
E|--2-x-x-x-xxx2-x-x-x-xxx-xx5xx0xx5xx2-x-x-x-xxx2-x-x-x--|

G|----------------------------------------------|
D|----------------------------------------------|
A|-----5-----------5-----------5----------------|
E|--xxx-xx5xx0xx5xx-xx5xx0-000--xx5xx0xx5xx0~~--|

chorus 2 - 1:42
G|-------------------------------------------------------------------------|
D|-------------------------------------------------------------------------|
A|--------------------5555555555555555-------------------5555555555555555--|
E|--22222222-55555555------------------22222222-55555555-------------------|

G|-------------------------------------------------------------------------|
D|-------------------------------------------------------------------------|
A|--------------------5555555555555555-------------------5555555555555555--|
E|--22222222-55555555------------------22222222-55555555-------------------|

bridge - 2:00
G|-----------------------------------|
D|-----------------------------------|
A|----------------5555---------------|
E|--0----2----0--------5-5-0----2----|

verse 3 - 2:15
G|--------------------------------------------------------------------------|
D|--------------------------------------------------------------------------|
A|--------------------------------------------------------------------------|
E|--xxx2-x-x-x-xxx2-x-x-x-xxx2-x-x-x-xxx2-x-x-x-xxx2-x-x-x-xxx2-x-x-x22222--|

G|-------------------------------------------------------------------------|
D|-------------------------------------------------------------------------|
A|--------------------5555555555555555-------------------5555555555555555--|
E|--22222222-55555555------------------22222222-55555555-------------------|

G|----------------------------------------------------------------------------|
D|----------------------------------------------------------------------------|
A|------------------5-5-5-5-5-5-5-5-----------------5-5-5-5-5-5-5-5-55-55-5\--|
E|--2-2-2-2-5-5-5-5-----------------2-2-2-2-5-5-5-5---------------------------|

ending chorus - 2:49
G|-------------------------------------------------------------------------|
D|-------------------------------------------------------------------------|
A|--------------------5555555555555555-------------------5555555555555555--|
E|--22222222-55555555------------------22222222-55555555-------------------|

G|------------------------------------------------------------------------|
D|------------------------------------------------------------------------|
A|--------------------5555555555555555-------------------555555555-55-5\--|
E|--22222222-55555555------------------22222222-55555555------------------|



| /  slide up
| \  slide down
| h  hammer-on
| p  pull-off
| ~  vibrato
| +  harmonic
| x  Mute note
===============================================================================
            
Submit corrections

comments powered by Disqus
↑ Back to top | Punchline Bass for Flashlight. Lyrics for acoustic guitar and electric guitar. Tablatures and chords are parodies/interpretations of the original songs. You may use it for private study, scholarship, research or language learning purposes only