>
 >
Flashlight

Flashlight Guitar Tabs

Punchline - Flashlight chords, tabs, tablatures, lyrics

Guitar lessons | Add/correct | Request | Top 50 tabs Artists:  A B C D E F G H I J K L M N O P Q R S T U V W X Y Z 0-9

Flashlight Guitar Tabs – Punchline

CD, Sheet music, Poster

Do you like Flashlight? Share with your friends now
Bass TabsTabs
 x - mute
 p - pull off
 h - hammer on
 ~ - ring out
 / - slide down
 \ - slide up


	Here's my tab for Flashlight!
	Make sure you listen for timing 
	on everything. Feel free to IM

Intro 
e |------------------------|
b |------------------------|
g |---------x-7--x-7--11\--|
d |---------x-7--x-7--11\--|
a |---------x-5--x-5--9-\--|
E |--2~~~------------------|



Intro Continued 
e |----------------------------------------------|
b |----------------------------------------------|
g |----------------------------------------------|
d |-------2h4---4-x-x-x-x--7-x-x-x-x--9-x-x-x-x--|
a |--2h4--------4-x-x-x-x--7-x-x-x-x--9-x-x-x-x--|
E |-------------2-x-x-x-x--5-x-x-x-x--7-x-x-x-x--|
the F# A and B are muted twice



Guitar 1 Chorus x's 4
e |-----------|
b |-----------|
g |--------7--|
d |--4--7--7--|
a |--4--7--5--|
E |--2--5-----|


Guitar 2 Chorus
e|-------------------------------------------------|
b|-------------------------------------------------|
g|--14--13--11--9--11----14--13--11-9--11-6--4--9--|
d|---x---x--x---x--x-----x---x---x--x--x--x--x--x--|
a|--12--11--9---7--9-----12--11--9--7--9--4--2--7--|
e|-------------------------------------------------|


Guitar 2 Chorus Continued
e|----------------------------------------------------|
b|----------------------------------------------------|
g|--14--13--11-9---16--14--13--9---14--13--11--9--11--|
d|---x--x---x--x---x---x---x---x---x---x---x---x--x---|
a|--12--11--9--7---14--12--11--7---12--11--9---7--9---|
e|----------------------------------------------------|



Verse Guitar 1
e |-----------------------------|
b |-----------------------------|
g |-----------------------------|
d |--2--4--x--x--2--2--4--x--x--|
a |--2--4--x--x--2--2--4--x--x--|
E |--0--2--x--x--0--0--2--x--x--|




Verse Guitar 1 Continued
e |--------------|
b |--------------|
g |--7-----------|
d |--7--7--2--4--|
a |--5--7--2--4--|
E |-----5--0--2--|


Verse Guitar 2
e |-------------------------------------|
b |-------------------------------------|
g |-----6p4-----6p4-----6p4-----6p4-----|
d |--4-------7-------6-------6-------4--|
a |-------------------------------------|
E |-------------------------------------|


Verse Guitar 1
e |-----------------------------|
b |-----------------------------|
g |-----------------------------|
d |--2--4--x--x--2--2--4--x--x--|
a |--2--4--x--x--2--2--4--x--x--|
E |--0--2--x--x--0--0--2--x--x--|



Verse Guitar 1 Continued Last 2 chords in the 2nd messure are muted
e |--------------|-------------------|-------------------|
b |--------------|-------------------|-------------------|
g |--7-----------|--7----------------|--7----------------|
d |--7--7--2--4--|--7--7--2--x2--x4--|--7--7--2--4--2~~--|
a |--5--7--2--4--|--5--7--2--x2--x4--|--5--7--2--4--2~~--|
E |-----5--0--2--|-----5--0--x0--x2--|-----5--0--2--0~~--|


Verse Guitar 2
e |-------------------------------------|
b |-------------------------------------|
g |-----6p4-----6p4-----6p4-----6p4-----|
d |--4-------7-------6-------6-------4--|
a |-------------------------------------|
E |-------------------------------------|


Verse Guitar 2 Continued 
e |---------------------------------------------------------------------------|
b |---------------------------------------------------------------------------|
g |------6p4-----6p4------4--6--------6p4------6p4------6p4------6p4----------|
d |---4-------7--------6--------7--4-------7--------7--------6---------2~~~---|
a |---------------------------------------------------------------------------|
E |---------------------------------------------------------------------------|




Guitar 1 Chorus x's 4
e |-----------|
b |-----------|
g |-----------|
d |--4--7--9--|
a |--4--7--9--|
E |--2--5--7--|


Guitar 2 Chorus
e|-------------------------------------------------|
b|-------------------------------------------------|
g|--14--13--11--9--11----14--13--11-9--11-6--4--9--|
d|---x---x--x---x--x-----x---x---x--x--x--x--x--x--|
a|--12--11--9---7--9-----12--11--9--7--9--4--2--7--|
e|-------------------------------------------------|


e|----------------------------------------------------|
b|----------------------------------------------------|
g|--14--13--11-9---16--14--13--9---14--13--11--9--11--|
d|---x--x---x--x---x---x---x---x---x---x---x---x--x---|
a|--12--11--9--7---14--12--11--7---12--11--9---7--9---|
e|----------------------------------------------------|



 Repeat the CHORUS and VERSE




Bridge
e |------------------------------------------|
b |------------------------------------------|
g |-----------------7-7-7-7------------------|
d |--2~~--4~~--2~~--7-7-7-7--7--7/4--2~~--4--|
a |--2~~--4~~--2~~--5-5-5-5--7--7/4--2~~--4--|
E |--0~~--2~~--0~~-----------5--5/2--0~~--2--|



Listen for timing and rythem for these 3 guitars

Bridge Guitar 1
e |--------------|
b |--------------|
g |--------------|
d |--2--2--x--x--|
a |--2--2--x--x--|
E |--0--0--x--x--|



Bridge Guitar 2
e |----------|
b |----------|
g |--11--13--|
d |--x---x---|
a |--9---11--|
E |----------|


Bridge Guitar 3
e |--------------------------------|
b |--------------------------------|
g |------------6p4------------6p4--|
d |--4-4--4-4-------4-4--4-4-------|
a |--------------------------------|
E |--------------------------------|
   The F#(4) note is muted the whole time
  

Repeat Chorus



Chords For The Last Chorus.
e |--------------|
b |--------------|
g |--------7-----|
d |--4--7--7--9--|
a |--4--7--5--9--|
E |--2--5-----7--|


Outro
e |-------------------|
b |-------------------|
g |--x-7--x--7--------|
d |--x-7--x--7--2--4--|
a |--x-5--x--5--2--4--|
E |-------------0--2--|





Comments


Popular Punchline tabs & chords
Flashlight Bass Tabs
Power Off Bass Tabs
Battlescars Tabs
Battlescars Intro Tabs
Getaway Intro Tabs
Getting There Is Getting By (Intro) Tabs
Getting There Is Getting By 2 Tabs
Hit Tabs
Play Tabs
Wars Will Always Happen Intro Tabs


Song lyrics



↑ Back to top | Tablatures and chords are parodies/interpretations of the original songs. You may use it for private study, scholarship, research or language learning purposes only
© 2014 AZChords.com Contact us | Privacy policy | DMCA | Add/correct tabs | Request tabs | Top 50 tabs