» » »

Bar Italia Bass tabs (ver.1)

Artists:  A B C D E F G H I J K L M N O P Q R S T U V W X Y Z # 

Bar Italia Bass tabs (ver.1)

Pulp
Rating:
0/5 (0 votes)

Hard to play? Try these video lessons and learn fast.
                This is a a lot simpler than it may look, all the riffs are very similar. This is my 
tab, but I've spent ages on it. Perhaps it isnt 100% correct, but I think its close. 
welcome. We need more Pulp bass tabs!


Intro: x2

G|------------|
D|---2-5-2----|
A|-3----------|
E|------------|

Riff 1 x2

G|----------------------------------|
D|---2-5-2---6-9-6-----------7-10-7-|
A|-3-------7-----------7---8--------|
E|-----------------5-8---8----------|

Riff 2 x1

G|-----------------------------------|
D|---2-5-2---7-10-7------------------|
A|-3-------7------------7---888888---|
E|------------------5-8---8----------|

Riff 1 x1
Riff 2 x1

Intro x2  )
Riff 1 x2 )
Riff 2 x1 } Same as before
Riff 1 x1 )
Riff 2 x1 )

Intro x1

Bridge x2

G|-------------------------------------|
D|-----2-5-2-----6-9-6-----------------|
A|-3-3-------7-7-------------7---88888-|
E|---------------------5-5-8---8-------|

Bridge part 2 x1

G|------------|
D|------------|
A|-3333333333-|
E|------------|

Riff 1 x1
Riff 2 x1
Riff 1 x1
Riff 2 x1

Outro x1

G|-------|
D|-------|
A|-1-2-3-|
E|-------|
            
Hard to play? Try these video lessons and learn fast. | Correct




comments powered by Disqus
↑ Back to top | Tablatures and chords are parodies/interpretations of the original songs. You may use it for private study, scholarship, research or language learning purposes only