» » »

Prong, Beg To Differ Tabs (ver.1)

Artists:  A B C D E F G H I J K L M N O P Q R S T U V W X Y Z # 

Beg To Differ Tabs (ver.1)

Prong Tabs
 Rating:
4/5 (4 votes)
Beg To Differ lessons Tabs too difficult? Try these video lessons and learn fast
1
                Band:  Prong

Copyright (c)  (Epic) (1990)
Version 1.0 - (05/09/06)



.  - palm mute           /  - slide up to
\  - slide down to       ~  - vibrato
h  - hammer on           b  - Bend
p  - pull off            Suffixes for bend
t  - tap                 f  - full bend    h - half bend
ph - pinched harmonic    q  - quarter bend t - tap bend
*  - see comment         ^  - Hold bend    r release bend
x  - Stuccatto           ~  - vibrato bend
,  - slight palm mute    () - ghost note, sustained note
"  - tremolo note        <> - harmonic
pb - pre bend

Tuning E A D G B E

 Intro

 [PM]      [PM]    [PM]       PM    [-PM]
|---------------------------------------------|
|---------------------------------------------|
|---1--1p0-----1p0-------5-5-\--1p0-----------|
|-2-1--1p0-----1p0-------3-3-\--1p0-------2---|
|-2--------2-2-----2-2--------------2-2---2---|
|-0--------0-0-----0-0--------0-----0-0-1-----|

 Riff A
 [PM]      [PM]    [PM]       PM    [---PM---]
|-----------------------------------------------|
|-----------------------------------------------|
|---1--1p0-----1p0-------5-5-\--1p0-------------|
|-2-1--1p0-----1p0-------3-3-\--1p0-------------|
|-2--------2-2-----2-2--------------2-2-3-3-3-3-|
|-0--------0-0-----0-0--------0-----0-0-1-1-1-1-|


 Riff B
 [PM]      [PM]    [PM]       PM    [-PM]
|---------------------------------------------|
|---------------------------------------------|
|---1--1p0-----1p0-------5-5-\--1p0-----------|
|-2-1--1p0-----1p0-------3-3-\--1p0-------2---|
|-2--------2-2-----2-2--------------2-2---2---|
|-0--------0-0-----0-0--------0-----0-0-1-0---|

 [PM]      [PM]    [PM]       PM    [---PM---]  [-PM--]
|--------------------------------------------------------|
|--------------------------------------------------------|
|---1--1p0-----1p0-------5-5-\--1p0----------------------|
|-2-1--1p0-----1p0-------3-3-\--1p0----------------------|
|-2--------2-2-----2-2--------------2-2-3-3-3-3--3-3-3-3-|
|-0--------0-0-----0-0--------0-----0-0-1-1-1-1--1-1-1-1-|


 Rpt Riff B, Riff A, Riff B, 


 [PM]      [PM]    [PM]       PM    [---PM---]  [-PM--]
|--------------------------------------------------------|
|--------------------------------------------------------|
|---1--1p0-----1p0-------5-5-\--1p0----------------------|
|-2-1--1p0-----1p0-------3-3-\--1p0----------------------|
|-2--------2-2-----2-2--------------2-2-3-3-3-3--3-3-3-3-|
|-0--------0-0-----0-0--------0-----0-0-1-1-1-1--1-1-1-1-|

 [-PM-]      [-PM-]
|-------------------------------|
|-------------------------------|
|-------------------------------|
|-------------------------------|
|-3-3-3-2----3-3-3-2------------|
|-1-1-1-0----1-1-1-0------------|

 [-PM-]      [-PM-]
|-------------------------------|
|-------------------------------|
|---------------------/7---\----|
|-------------------------------|
|-3-3-3-2----3-3-3-2--/5---\----|
|-1-1-1-0----1-1-1-0------------|

 Rpt above 2 X


 Main Riff

 [---------------------PM-----------------------]
|---------------------------------------------------|
|---------------------------------------------------|
|---------------------------------------------------|
|-3-------------------------------------------------|
|-2-----5-----3---5-2-----3---5-2-----3---5-2---3---|
|---0-0-3-0-1---0-3-0-0-1---0-3-0-0-1---0-3-0-0-1---|


 [--------------------PM----------------------]
|-------------------------------------------------|
|-------------------------------------------------|
|-------------------------------------------------|
|---------------------------------------------3---|
|-----5-----3---5-2-----3---5-2-----3---5-2---1---|
|-0-0-3-0-1---0-3-0-0-1---0-3-0-0-1---0-3-0-0-1---|

 Verse

 Guitar 1
 [------------------PM---------------------]
[-------------------------------------------|
[-------------------------------------------|
[-------------------------------------------|
[-------------------------------------------|
[---------3---5-2-----3---5-2-----3---5-2---|
[-0-0-0-1---0-3-0-0-1---0-3-0-0-1---0-3-0-0-|
[Guitar 2
[[-PM-]    PM  [PM]    PM  [PM]    PM  [PM]
[-------------------------------------------|
[-------------------------------------------|
[-------4-----4-----4-----4-----4-----4-----|
[-------3-----3-----3-----3-----3-----3-----|
[-------------------------------------------|
[-0-0-0-----0---0-0-----0---0-0-----0---0-0-| Rpt 4 X



 Bridge

 Guitar 1
[----------------------------------------------------------|
[----------------------------------------------------------|
[----------------------------------------------------------|
[-0-----(0)-----2-----(2)-----0-----(0)-----2-----(2)------|
[-1-----(1)-----0-----(0)-----1-----(1)-----0-----(0)------|
[----------------------------------------------------------|
[Guitar 2
[----------------------------------------------------------|
[-3---------------------------3----------------------------|
[-2-----2-0---0-2--2-1-1------2----2-0---0------2------1b--|
[-----------3------------3-3-----------3-------------------|
[----------------------------------------------------------|
[----------------------------------------------------------|

 Chorus

      PM    PM   [-------PM------]
|----------------------------------|
|----------------------------------|
|-1p0---1p0------------------------|
|-1p0---1p0---2--------------------|
|-------------2--------------------|
|-----0-----0-0--0-1p0-0-2p0-3p0-0-| Rpt 3 X

      PM    PM  [---PM----]
|---------------------------|
|---------------------------|
|-1p0---1p0-----------------|
|-1p0---1p0---2--3--3-3--3--|
|-------------2--3--3-3--3--|
|-----0-----0-0--1--1-1--1--|

 Rpt Main Riff
 Rpt Verse
 
 Bridge

 Guitar 1
[--------------------------------------------------------------|
[--------------------------------------------------------------|
[--------------------------------------------------------------|
[-0-----(0)-----2-----(2)-----0-----(0)-----2-----(2)----------|
[-1-----(1)-----0-----(0)-----1-----(1)-----0-----(0)----------|
[--------------------------------------------------------------|
[Guitar 2
[--------------------------------------------------------------|
[-3------------------------------------------------------------|
[-2-----0-2-0---0--2--1b---------------2-0--0--2--1b-----------|
[--------------------------------------------------------------|
[--------------------------------------------------------------|
[--------------------------------------------------------------| Rpt




 Rpt Chorus


 [-PM-]      [-PM-]
|-------------------------------|
|-------------------------------|
|-------------------------------|
|-------------------------------|
|-3-3-3-2----3-3-3-2------------|
|-1-1-1-0----1-1-1-0------------|

 [-PM-]      [-PM-]
|-------------------------------|
|-------------------------------|
|---------------------/7---\----|
|-------------------------------|
|-3-3-3-2----3-3-3-2--/5---\----|
|-1-1-1-0----1-1-1-0------------|

 Rpt above 3 X

  [--PM--]  [--PM--]        [--PM--]   [--PM--]
|----------------------------------------------------------|
|----------------------------------------------------------|
|----------------------------------------------------------|
|---------------------3-------------------------3----------|
|-5-5-5-2----5-5-5-2----5-4-5-5-5-2----5-5-5-2----5-4-5-4--|
|-3-3-3-0----3-3-3-0--------3-3-3-0----3-3-3-0-------------| Rpt

 Guitar solo

  [----------------ph---------------------]
|----------------------------------------------------|
|-6-----6-----6-----6-----6--------------------------|
|---7-6---7-6---7-6---7-6---7-6-5--------------------|
|---------------------------------8-7-8--7-8p7-8p7---|
|----------------------------------------------------|
|----------------------------------------------------|

 [-------ph--------]ph~~
|------------------------17-18p17-----------------------------------|
|---------------------------------18---13-15p13-11-13p11------------|
|--------------------------------------------------------10-12p10---|
|-------------------------------------------------------------------|
|-4-----4-----4-----5-----------------------------------------------|
|---5-0---5-0---5-0-------------------------------------------------|

|-------------------------------|
|-------------------------------|
|-7p0-7p0-5p0-5p0-3p0-3p0-------|
|-------------------------------|
|-------------------------4b----|
|-------------------------------|

 Backing for solo

  [--PM--]  [--PM--]        [--PM--]   [--PM--]
|----------------------------------------------------------|
|----------------------------------------------------------|
|----------------------------------------------------------|
|---------------------3-------------------------3----------|
|-5-5-5-2----5-5-5-2----5-4-5-5-5-2----5-5-5-2----5-4-5-4--|
|-3-3-3-0----3-3-3-0--------3-3-3-0----3-3-3-0-------------| Rpt

 Rpt Bridge
 Rpt Chorus 2 X with fill

|------------|
|------------|
|------------|
|-------<5>--|
|----<5>-----|
|-<5>--------|

 [-PM--]
|------------|
|------------|
|------------|
|------------|
|-3--3-3-2---|
|-1--1-1-0---|



END
            
Submit corrections

comments powered by Disqus
↑ Back to top | Prong Tabs for Beg To Differ. Lyrics for acoustic guitar and electric guitar. 1 Tablatures and chords are parodies/interpretations of the original songs. You may use it for private study, scholarship, research or language learning purposes only