» » »

Stein's Bass tabs (ver.1)

Artists:  A B C D E F G H I J K L M N O P Q R S T U V W X Y Z # 

Stein's Bass tabs (ver.1)

Project 86
Rating:
0/5 (0 votes)

Hard to play? Try these video lessons and learn fast.
                (Theme)
Intro
    G -----------------------
    D --7---7----------------x8
    A ----5---5-67-----------
    D -----------------------
Solo (let last note ring)
    G-----------------------------------------------------
    D-7--6-----------7-6----------------------------------
    A--55-55755655857-55-557556558------------------------
    D-----------------------------------------------------
Verse
    G-----------------------------------------------------
    D---------------7--6----------------------------------x3
    A----------------55-55755655857-----------------------
    D-00-000-000-000--------------------------------------
This last part of the verse changes up a little right before
The chorus when he is saying "he's all about this sound..."
    G-----------------------------------------------------
    D---------------7--6----------------------------------
    A----------------55-557556558-------------------------
    D-00-000-000-000--------------------------------------
    (Let the last note ring)
Chorus
    G-------------------------
    D-------------------------x4
    A-------------------------
    D-6--5-0---xx-------------

    Verse

Chorusx8

Refrain (low D string)
    D-111-111-666-111-111-XXXX-x6

    D-11-11-66-11-11----------x3
Chorus#2 (you hate us cuz we'll never go away...)
    G--------------------------
    D--------------------------
    A--------------------------
    D-0---12~0-----10----------
Or...
    G--------------------------
    D--------------------------
    A------5~------------------
    D-0------0------10----------
    These both sounded close so you decide...
            
Hard to play? Try these video lessons and learn fast. | Correct




comments powered by Disqus
↑ Back to top | Tablatures and chords are parodies/interpretations of the original songs. You may use it for private study, scholarship, research or language learning purposes only