>
 >
Ps

Ps Guitar Tabs

Project 86 - Ps chords, tabs, tablatures, lyrics

Guitar lessons | Add/correct | Request | Top 50 tabs Artists:  A B C D E F G H I J K L M N O P Q R S T U V W X Y Z 0-9

Ps Guitar Tabs – Project 86

CD, Sheet music, Poster

Do you like Ps? Share with your friends now
TabsTabs v2

	This is my first tab and it's a pretty damn good one.  The tuning is in Drop D like most of the Project 86 songs.  I'm not sure if it is exactly the same as they play it. Enjoy!

Tuning: low to high (D-A-D-G-B-E)


(Clean) Verse/Main Riff:
E|----------------------------------------------------------------------------| 
B|----------------------------------------------------------------------------| 
G|-8--8--8--7--7--7-5/7--7--7--7-----8-7--8-7--8-7--8-7--8-7--5-/-7-----------|              
D|-0--0--0--0--0--0-0-0--0--0--0----------------------------------------------| 
A|----------------------------------------------------------------------------| 
D|--------------------------------0-------------------------------------------|

(Heavy Distortion) Chorus:
E|---------------------------------------------------------------| 
B|---------------------------------------------------------------|
G|--------5-/-7--7-7-------7-7-7-7----7-7-7-7----7-7-------------| 
D|--1--0--x-/-x--x-x---0---x-x-x-x-0--x-x-x-x-0--x-x--0----------|
A|--1--0--3-/-5--5-5---0---5-5-5-5-0--5-5-5-5-0--5-5--0----------| 
D|--1--0--------------0------------0----------0-------0----------|

(Clean) Verse 2 (almost the same as Main Riff)
E|----------------------------------------------------------------------------| 
B|--------------------------------6--6--6-------------------------------------|
G|-8--8--8--7--7--7-5/7--7--7--------------7--7--7--8--8--8--7--7--7--8-8-7-7-|
D|-0--0--0--0--0--0-0-0--0--0-------------------------------------------------| 
A|----------------------------------------------------------------------------| 
D|-----------------------------0----------------------------------------------|

(Heavy Distortion) Bridge:
E|----------------------------------------------------------------------------| 
B|----------------------------------------------------------------------------|
G|-----------------------------------------12--12-12--0--12-12-12-------------| 
D|--1-1-1-0-1-1-1-0-----------0------------x---x--x---0--x--x--x--------------|
A|--1-1-1-0-1-1-1-0--pause----0------------10--10-10--0--10-10-10-------------| 
D|--1-1-1-0-1-1-1-0-----------0-let ring--------------------------------------|
                             ^	
         On 4th time end with |
			        
(Heavy Distortion) Outro:
E|----------------------------------------------------------------------------| 
B|----------------------------------------------------------------------------|
G|---7-7-7--------------------------------------------------------------------| 
D|---x-x-x--0-------------------0---------------------------------------------|
A|---5-5-5--0-------------------0---------------------------------------------|
D|----------0----last time let--0-ring w/ feedback----------------------------|

Order:
Verse/Main Riff: x8
Chorus: x4
Main Riff/Verse2: x4
Chorus: x4
Bridge Riff: x4
Main Riff: x12
Chorus: x4
Outro: x11

That's about all of the riffs.  If you have any questions E-mail Me. Enjoy!





Comments


Popular Project 86 tabs & chords
Oblivion Bass Tabs
Run Bass Tabs
Set Me Up Bass Tabs
Set Me Up 1 Bass Tabs
Wrought On This Holidays Eve Bass Tabs
Hollow Again 1 Tabs
Salem's Suburbs Tabs
Slaves To Liberty 2 Tabs
The Butcher Intro Tabs
Your Heroes Are Dead Tabs


Song lyrics



↑ Back to top | Tablatures and chords are parodies/interpretations of the original songs. You may use it for private study, scholarship, research or language learning purposes only
© 2014 AZChords.com Contact us | Privacy policy | DMCA | Add/correct tabs | Request tabs | Top 50 tabs