» » »

Open Hand Tabs (ver.1)

Artists:  A B C D E F G H I J K L M N O P Q R S T U V W X Y Z # 

Open Hand Tabs (ver.1)

Project 86
Rating:
0/5 (0 votes)

Hard to play? Try these video lessons and learn fast.
                
 
TUNING: drop d (D-A-D-G-B-E)

    Intro

    --------------------------------------------
    --------------------------------------------
    --------------------------------------------
    --3-2-0-2---------2-2-2-2-2-2-2-2-2-2-2-----
    --3-2-0-2---------2-2-2-2-2-2-2-2-2-2-2-----
    --3-2-0-2---------2-2-2-2-2-2-2-2-2-2-2-----
                 P.M.----------------------

    Verse

    --------------------------------------------
    --------------------------------------------
    --------------------------------------------
    --3-2-0-2-2-2---3-2-0-2-2-2-2---------------
    --3-2-0-2-2-2---3-2-0-2-2-2-2---------------
    --3-2-0-2-2-2---3-2-0-2-2-2-2---------------

   
    --------------------------------------------
    --------------------------------------------
    --------------------------------------------
    --3-2-0-2-2-2---3-2-0-2-2-2-x-x-------------
    --3-2-0-2-2-2---3-2-0-2-2-2-x-x-------------
    --3-2-0-2-2-2---3-2-0-2-2-2-x-x-------------

    Chorus
    
    --------------------------------------------
    --------------------------------------------
    --5-----------------------------------------
    --5--(let ring)--3-2-0-2--3-2-0-2--0-2-0-2--
    --3--------------3-2-0-2--3-2-0-2--0-2-0-2--
    -----------------3-2-0-2--3-2-0-2--0-2-0-2--
                P.M.--------------------------

    Part after first Chorus....
    --------------------------------------------
    --------------------------------------------
    --------------------------------------------
    --------------------------------------------
    --------------------------------------------
    --3-2-0-2~--3-2-0-2~--3-2~------------------

    Part after second Chorus....

    --------------------------------------------
    ---------(twice)----------------------------
    -----------------------------5555555555-----
    --3-2-0-2--3-2-0-2--2-3-0----5555555555-----
    --3-2-0-2--3-2-0-2--2-3-0----3333333333-----
    --3-2-0-2--3-2-0-2--2-3-0-------------------
              (twice)
    
    Bridge
     
    First Guitar(Rhythm) (not 100% on this part)
    --------------------------------------------
    --------------------------------------------
    --------------------------------------------
    --2-3-0-0-0--2-3-0-0-5----------------------
    --2-3-0-0-0--2-3-0-0-5----------------------
    --2-3-0-0-0--2-3-0-0-5---------------------

    
    Second Guitar (hard to hear but it's there)
    --------------------------------------------
    --------------------------------------------
    --9-9-9-9-9/7-7-7-7/9-9-9-9/12-12-12/-------
    --------------------------------------------
    --7-7-7-7-7/5-5-5-5/7-7-7-7/10-10-10/-------
    --------------------------------------------

    
    --------------------------------------------
    --------------------------------------------
    --55555555555555555555555-5^--(bend)--------
    --55555555555555555555555-x-----------------
    --33333333333333333333333-------------------
    --------------------------------------------

    Outro 
    
    First Guitar(various bending on the 5)
    --------------------------------------------
    --------------------------------------------
    --55555555555555555555555555555555555/0-----
    --------------------------------------------
    --33333333333333333333333333333333----------
    --------------------------------------------

    
    
    Second Guitar(Rhythm)
    --------------------------------------------
    --------------------------------------------
    --------------------------------------------
    --3-2-0-2--3-2-0-2--2-3-0-------------------
    --3-2-0-2--3-2-0-2--2-3-0-------------------
    --3-2-0-2--3-2-0-2--2-3-0-------------------
            
Hard to play? Try these video lessons and learn fast. | Correct




comments powered by Disqus
↑ Back to top | Tablatures and chords are parodies/interpretations of the original songs. You may use it for private study, scholarship, research or language learning purposes only