» » »

Project 86, Evil (A Chorus Of Resistance) Bass tabs (ver.1)

Artists:  A B C D E F G H I J K L M N O P Q R S T U V W X Y Z # 

Evil (A Chorus Of Resistance) Bass tabs (ver.1)

Project 86 Tabs
Rating:
0/5 (0 votes)
Evil (A Chorus Of Resistance) lessons Tabs too difficult? Try these video lessons and learn fast
                Evil (A Chorus Of Resistance)

Tuning: Dropped D (DADG)

I had previously read a tab online of this song, where a lot of stuff was just plain 
 It did give me a basis for getting this tab done, so I will give credit to Dumtard for the 
of my tabulature of this song.

In essence, this is a very simple song in Project 86 standards, with only two parts, 
slight variations from them.

Key -- h: Hammer on; \: Slide up the neck; *: Let note ring

Intro/Chorus (2x):
G|------------------------------------------------------------------------|
D|------------------------------------------------------------------------|
A|------------------------------------------------------------------------|
D|-0-0-0-8-7-7-7-10-8-8-8-12h15-12h15-12-0-0-0-8-7-7-7-10-8-8-8-8-8-7-7-7-|

Verse/Bridge (3x):
G|----------------------------------------------------------------------------|
D|-7-7-7-7-7-7-7-7-10-10-10-10-10-12-10-0-------------------------------------|
A|----------------------------------------8-8-8-8-10-10-10-10-5-5-5-5-5-5-5-5-|
D|----------------------------------------------------------------------------|

Verse Lead-out (1x):
G|------------------------------------------------------------------------------|
D|-7-7-7-7-7-7-7-7-10-10-10-10-10-12-10-0---------------------------------------|
A|----------------------------------------8-8-8-8-10-10-10-10-5-5-5-5-5-5-------|
D|------------------------------------------------------------------------10\0--|

Repeat Intro/Chorus (2x)

Repeat Verse/Bridge (3x)

Repeat Verse Lead-out (1x)

Repeat Intro/Chorus (2x)

Repeat Verse/Bridge (4x)

Chorus Lead-in (1x)
G|------------------------------------------------------------------------|
D|------------------------------------------------------------------------|
A|------------------------------------------------------------------------|
D|---------------------------------------0-0-0-8-7-7-7-10-8-8-8-8-8-7-7-7-|

Repeat Intro/Chorus (3x)

Outro
G|----
D|----
A|----
D|-0*-
            
Submit corrections

comments powered by Disqus
↑ Back to top | Project 86 Bass for Evil (A Chorus Of Resistance). Lyrics for acoustic guitar and electric guitar. Tablatures and chords are parodies/interpretations of the original songs. You may use it for private study, scholarship, research or language learning purposes only