» » »

Project 86, Evil (A Chorus Of Resistance) Tabs (ver.1)

Artists:  A B C D E F G H I J K L M N O P Q R S T U V W X Y Z # 

Evil (A Chorus Of Resistance) Tabs (ver.1)

Project 86 Tabs
Rating:
0/5 (0 votes)
Hard to play? Try these video lessons and learn fast.
                Evil (A Chorus of Resistance)


Intro, chorus
e|-------------------------------------------------------------------------|
B|-------------------------------------------------------------------------|
G|-------------------------------------------------------------------------|
D|-0-0-8-7-7-7-10-8-8-8-8-12-15-12-15-12--0-0-8-7-7-7-10-8-8-8-8-8-77-7-55-|
A|-0-0-8-7-7-7-10-8-8-8-8-12-15-12-15-12--0-0-8-7-7-7-10-8-8-8-8-8-77-7-55-|
D|-0-0-8-7-7-7-10-8-8-8-8-12-15-12-15-12--0-0-8-7-7-7-10-8-8-8-8-8-77-7-55-|

 |--------------------------------Eighth Notes---------------------16---16-|


Verse 1 (Bass only)
e|-------|
B|-------|
G|-------|
D|-0~----|
A|-0~----|
D|-0~----|


Then, before the chorus:
e|-----|
B|-----|
G|-----|
D|-12\-|
A|-12\-|
D|-12\-|


Interlude: (all 16th notes-alternate picking really helps)
e|-------------------------------5555---------------------|
B|--------------------------6666------6666-8888-2222-3333-|
G|------5555-7777-5555-7777-------------------------------|
D|-7777---------------------------------------------------|
A|--------------------------------------------------------|
D|--------------------------------------------------------|


Verse 2:
e|-5555-------------------------5555-------------------------|
B|------6666---------------6666------6666-8888-2222-33333333-|
G|-----------7777-5555-7777----------------------------------|  X2
D|-----------------------------------------------------------|
A|-----------------------------------------------------------|
D|-----------------------------------------------------------|


Slide, then Chorus


Bridge:
e|-10-------10-------|-10-------10-------|-10-------10-------|-----------|
B|----13-------13----|----13-------13----|----13-------13----|-----------|
G|-------14-------14-|-------14-------14-|-------14-------14-|-12---10---|
D|-------------------|-------------------|-------------------|-----------|
A|-------------------|-------------------|-------------------|-----------|
D|-------------------|-------------------|-------------------|-----------|

 |-------------------Triplet-Quarter-Notes-------------------|-1.5--2+.5-|              
/\    /\
                                                       dotted 1/4, 1/2 + 1/8

Then Chorus


The end.
            

comments powered by Disqus
↑ Back to top | Project 86 Tabs for Evil (A Chorus Of Resistance). Lyrics for acoustic guitar and electric guitar. Tablatures and chords are parodies/interpretations of the original songs. You may use it for private study, scholarship, research or language learning purposes only