» » »

Project 86, Chimes Tabs (ver.2)

Artists:  A B C D E F G H I J K L M N O P Q R S T U V W X Y Z # 

Chimes Tabs (ver.2)

Project 86 Tabs
 Rating:
4/5 (4 votes)
Chimes lessons Tabs too difficult? Try these video lessons and learn fast
                Tuning: DADGBE

  Verse:
E|-------------------------------------|
B|-------------------------------------|
G|--------------------------14-14-x-13-|
D|--12-12-12-12-----12------12-12-x-12-|
A|-------------------------------------|
D|-------------------------------------|

  Chorus:
E|---------------|
B|---------------|
G|---------------|
D|-0-----6-6-0-5-|
A|-0-----6-6-0-5-|
D|-0-----6-6-0-5-|

E|--------------|
B|--------------|
G|------------8-|
D|-0--3-5-00----|
A|-0--3-5-00--6-|
D|-0--3-5-00----|
  So follow me...

  Bridge:
E|--------------------------------------------------|
B|--------------------------------------------------|
G|-7-7--7-7-7---------------------------------------|
D|-------------6-6--6-6-6--5-5--5-5-5-3-00-3-00-3-0-|
A|-5-5--5-5-5--6-6--6-6-6--5-5--5-5-5-3-00-3-00-3-0-|
D|-------------6-6--6-6-6--5-5--5-5-5-3-00-3-00-3-0-|
            
Submit corrections

comments powered by Disqus
↑ Back to top | Project 86 Tabs for Chimes. Lyrics for acoustic guitar and electric guitar. Tablatures and chords are parodies/interpretations of the original songs. You may use it for private study, scholarship, research or language learning purposes only